Dont Cry, Guns N´ Roses (tablatura) (ver 2)

Autor: yonixten20 | 21112 visualizaciones

Intro:
G:----------------------------------------
D:----------------------------------------
A:---------------5-------4----------------
E:---4-6-7--6--7---4----------2---1-2-3-4-

Esto lo repite varias veces?:
G:----------------------------------------
D:----------------------------------------
A:--------4---------------------5---------
E:---4---------2----4-6-7--6--7---4-------

?Y después hace esto:
G:----------------------------------------
D:----------------------------------------
A:--------4-------------------------------
E:---4---------2----4-6-7--6-4-0----------


G:----------------------------------------
D:----------------------------------------
A:----------------------------------------
E:---0-2--2-4---2-4-2-4-4-4-2-0-----------


G:----------------------------------------
D:----------------------------------------
A:----------------------------------------
E:---0-2--2-4---2-4-2-4-4-4-2-0-----------


G:----------------------------------------
D:----------------------------------------
A:----------2-1---------------------------
E:---0-2--2-----4--2-2-0--0-2--2-4---------

Y vuelve a lo de antes:
G:----------------------------------------
D:----------------------------------------
A:--------4---------------------5---------
E:---4---------2----4-6-7--6--7---4-------

Lo hace un par de veces y cambia a esto:
G:----------------------------------------
D:----------------------------------------
A:--------4-------------------------------
E:---4---------2----4-6-7--6--4--2-2-0----


G:----------------------------------------
D:----------------------------------------
A:----------------------------------------
E:---0-2--2-4---2-4-2-4-4-4-2-0-----------


G:----------------------------------------
D:----------------------------------------
A:----------------------------------------
E:---0-2--2-4---2-4-2-4-4-4-2-0-----------


G:-------------------------------------------------------------
D:-------------------------------------------------------------
A:----------2-1------------------------------------------------
E:---0-2--2-----4--2-2-0--0-2--2-4-4-4-4-4-4-4-4-4-4-4-4-4-4-4-0


G:----------------------------------------
D:----------------------------------------
A:----------------------------------------
E:---0-2--2-4---2-4-2-4-4-4-2-0-----------


G:----------------------------------------
D:----------------------------------------
A:----------------------------------------
E:---0-2--2-4---2-4-2-4-4-4-2-0-----------


G:-----------------------------------------------
D:-----------------------------------------------
A:-----------5-5-5-5-5-5-6-6-6-6-6-6-------------
E:---0-2--2--------------------------0--0-2--2-4-

Ahora vuelve a lo de antes pero con un pequeño cambio:
G:----------------------------------------
D:----------------------------------------
A:---4---------------------5--------------
E:--------2----4-6-7--6--7---4------------

Lo repite 3 veces y a la cuarta hace:
G:----------------------------------------
D:----------------------------------------
A:---4--------2-1-------------------------
E:--------2-------4--2-2-0----------------


G:----------------------------------------
D:----------------------------------------
A:----------------------------------------
E:---0-2--2-4---2-4-2-4-4-4-2-0-----------

G:----------------------------------------
D:----------------------------------------
A:----------------------------------------
E:---0-2--2-4---2-4-2-4-4-4-2-0-----------


G:----------------------------------------
D:----------------------------------------
A:----------2-1---------------------------
E:---0-2--2-----4--2-2-0------------------


G:--------------------------------------------------------
D:--------------------------------------------------------
A:------------------------------5-5-5-5-5-5-6-6-6-6-6-6---
E:---0-2--2-0--0-2--2-0--0-2--2-------------------------0-


G:-------------------------------------------------
D:-------------------------------------------------
A:-------------------------------------------------
E:---0-2--2-0--0-2--2-0--0--2--2-4-----------------


Espero q les guste mi primer tablatura.
Calificar esta versión:
Aviso: Este fichero es trabajo propio de su transcriptor y representa su interpretación personal de la canción. El material contenido en esta página es para exclusivo uso privado, por lo que se prohibe su reproducción o retransmisión, así como su uso para fines comerciales.
Más versiones de Dont Cry, Guns N´ Roses
Dont Cry
acordes
Dont Cry (ver 2)
acordes
Dont Cry (ver 3)
acordes
Dont Cry
tablatura
Dont Cry (ver 2)
tablatura
Dont Cry
bajo
Dont Cry
bateria
Descubre más canciones de Guns N´ Roses