Dont Cry, Guns N´ Roses (tablatura)

Autor: Anónimo | 22947 visualizaciones

Don´t Cry Solo 
A5 D5 F5 G5 A5 G5 

   E|-----------------|-------------------|-------------------------|------------------ 
   B|-----------------|---------------8---|--------------8-8--------|------------------ 
   A|--7b9===r7p5--7--|---7b9r7p5—7b9===--|--7b9r7p5—7b9=====9r7-5--|------------------ 
   D|-----------------|-------------------|-------------------------|--7-5------------- 
   A|-----------------|-------------------|-------------------------|------5b6r5- 
   E|-----------------|-------------------|-------------------------|------------------ 
   F5 G5 

   E|--------------------------------------------------------------| 
   B|--------------------------------------------------------------| 
   A|----------------7/9---9/10—10/12-----------------------12h14--| 
   D|------------------------------------------10h12-12/14---------| 
   A|--5b6r5---3/5---5/7---7/8---8/10---10h12----------------------| 
   E|--------------------------------------------------------------| 
   A5 G5 

   E|--------------|-------------------------|------------------------------| 
   B|-13b17--13----|-------------------------|------------------------------| 
   A|-----------14-|-12----------------------|------------------------------| 
   D|--------------|----14-13h14p13p12-13p12-|-10-12p10--------10-----------| 
   A|--------------|-------------------------|----------12p10------12p10-12-| 
   E|--------------|-------------------------|------------------------------| 
   F5 G5 E5 F5 
-
   E|--------15-15-15----------|--------15-15---------------|--------------------|----------------------- 
   B|-15b17===========17r15p13-|-15b17========17r15--1312--|-------12--15-13-12-|-13-------------------- 
   A|--------------------------|----------------------------|----13--------------|----14----------------- 
   D|--------------------------|----------------------------|-14-----------------|----------------------- 
   A|--------------------------|----------------------------|--------------------|----------------------- 
   E|--------------------------|----------------------------|--------------------|-----------------------

   E|-13-------------|-------------|---------5---------------------| 
   B|---13-15b17-15--|-15b17r15p13-|-8-8b10----8-5-----------9-----| 
   G|----------------|-------------|----------------7b9r7p5—-7b9---| 
   D|----------------|-------------|-------------------------------| 
   B|----------------|-------------|-------------------------------| 
   E|----------------|-------------|-------------------------------| 
Calificar esta versión:
Aviso: Este fichero es trabajo propio de su transcriptor y representa su interpretación personal de la canción. El material contenido en esta página es para exclusivo uso privado, por lo que se prohibe su reproducción o retransmisión, así como su uso para fines comerciales.
Más versiones de Dont Cry, Guns N´ Roses
Dont Cry
acordes
Dont Cry (ver 2)
acordes
Dont Cry (ver 3)
acordes
Dont Cry
tablatura
Dont Cry (ver 2)
tablatura
Dont Cry
bajo
Dont Cry
bateria
Descubre más canciones de Guns N´ Roses