Civil War, Guns N´ Roses (tablatura) (ver 4)

Autor: pancho135 | 32263 visualizaciones

Intro:(Em G Em G D/F#)

señal de sonido que nota y dejar al igual que la digitación.

"What we've got here is failure...
    Em                                 G
Eb|----------------------------------|----------------------------------|
Bb|----------------------------------|----------------------------------|
Gb|---------0----------------0-------|---------0---------------0--------|
Db|-----2-----2---2------2-----2-----|-----0-----0---0-----0-----0------|
Ab|---2---2-----2------2---2-----0h2-|---2---2-----2-----2---2-----0h2--|
Eb|-0---------------0----------------|-3---------------3----------------|
to communicated.                 Some men you just can't reach...

    Em                                 G                 D/F#
Eb|----------------------------------|-----------------|-----------------|
Bb|----------------------------------|-----------------|-----------------|
Gb|---------0---------------0--------|---------0-------|---------2-0---0-|
Db|-----2-----2---2-----2-----2------|-----0-----2-----|-----0-------2---|
Ab|---2---2-----2-----2---2-----0h2--|---2---2-----0h2-|---0---0---------|
Eb|-0---------------0----------------|-3---------------|-2---------------|
 So,you get what we had here last week  Which is the way he wants it! Well, he gets it!
 
    Em                                 G
Eb|----------------------------------|----------------------------------|
Bb|----------------------------------|----------------------------------|
Gb|---------0----------------0-------|---------0---------------0--------|   <--| 
Db|-----2-----2---2------2-----2-----|-----0-----0---0-----0-----0------|      | 
Ab|---2---2-----2------2---2-----0h2-|---2---2-----2-----2---2-----0h2--|      |
Eb|-0---------------0----------------|-3---------------3----------------|      |
                 N' I don't like it anymore than you, men."                    |
 Solo                                                                          |
Eb|--12~~------------10~~-------------------| este es el solo que
Bb|---------------------------10--11---12~~-| entrará a principios de digitación     |
Gb|-----------------------------------------|de cima --------------------------|
Db|-----------------------------------------|                            

    Em                                 G                 D/F#
Eb|----------------------------------|-----------------|-----------------|
Bb|----------------------------------|-----------------|-----------------|
Gb|---------0---------------0--------|---------0-------|---------2-0---0-|  <--|
Db|-----2-----2---2-----2-----2------|-----2-----2-----|-----0-------2---|     |
Ab|---2---2-----2-----2---2-----0h2--|---2---2-----0h2-|---0---0---------|     |aqui
Eb|-0--------------0-----------------|-3---------------|-2---------------|                                                                               
 Solo                                                                          |os 2
Eb|--12~~------------10~~---------------------------------------------------|  |juntos
Bb|----------------------------10-11---12~~-------------10~-----------------|  |
Gb|-------------------------------------------------------------12~-11------|--|
Db|----------------------------------------------------------------------9~-|

Agora entra junto c/ o baixo...

    Em                                 G
Eb|----------------------------------|----------------------------------|
Bb|----------------------------------|----------------------------------|
Gb|---------0----------------0-------|---------0---------------0--------|
Db|-----2-----2---2------2-----2-----|-----0-----0---0-----0-----0------|
Ab|---2---2-----2------2---2-----0h2-|---2---2-----2-----2---2-----0h2--|
Eb|-0---------------0----------------|-3---------------3----------------|
  Look at your young men fighting     Look at your women crying

    Em                                 G                 D/F#
Eb|----------------------------------|-----------------|-----------------|
Bb|----------------------------------|-----------------|-----------------|
Gb|---------0---------------0--------|---------0-------|---------2-0---0-|
Db|-----2-----2---2-----2-----2------|-----0-----2-----|-----0-------2---|
Ab|---2---2-----2-----2---2-----0h2--|---2---2-----0h2-|---0---0---------|
Eb|-0---------------0----------------|-3---------------|-2---------------|
    Look at your young men dying   The way they've always done before

 Perceba agora que o dedilhado muda nesta parte da música.
    Em                                 G
Eb|---------0----------------0-------|---------0----------------0-------|
Bb|-----0-----0---0------0-----0---0-|-----0-----0---0------0-----0---0-|
Gb|---0---0-----0------0---0-----0---|---0---0-----0------0---0-----0---|   <--|
Db|----------------------------------|----------------------------------|      |
Ab|----------------------------------|----------------------------------|      |
Eb|-0----------------0---------------|-3----------------3---------------|      |
                                                                               |
 Solo                                                                          |
Eb|--12~~------------10~~-------------------| este é o solo que                |
Bb|----------------------------10-11---12~~-| entra no começo do dedilhado     |
Gb|-----------------------------------------| de cima -------------------------|
Db|-----------------------------------------|                            


    Em                                 G                 D/F#
Eb|---------0----------------0-------|---------0-------|---------0-------|
Bb|-----0-----0---0------0-----0---0-|-----0-----0---0-|-----0-----0---0-|
Gb|---0---0-----0------0---0-----0---|---0---0-----0---|---0---0-----0---|  <--|
Db|----------------------------------|-----------------|-----------------|     |
Ab|----------------------------------|-----------------|-----------------|     |aqui
Eb|-0----------------0---------------|-3---------------|-2---------------|     |também
                                                                               |são
 Solo                                                                          |os 2
Eb|-12~~-------------10~~---------------------------------------------------|  |juntos
Bb|----------------------------10-11---12~--------------10~~----------------|  |
Gb|-------------------------------------------------------------12-11-9~~---|--|
Db|-------------------------------------------------------------------------|

    Em                                 G
Eb|----------------------------------|----------------------------------|
Bb|----------------------------------|----------------------------------|
Gb|---------0----------------0-------|---------0---------------0--------|
Db|-----2-----2---2------2-----2-----|-----0-----0---0-----0-----0------|
Ab|---2---2-----2------2---2-----0h2-|---2---2-----2-----2---2-----0h2--|
Eb|-0---------------0----------------|-3---------------3----------------|
  Look at the hate we're breeding    Look at the fear we're feeding  
    
    Em                                 G                 D/F#
Eb|----------------------------------|-----------------|-----------------|
Bb|----------------------------------|-----------------|-----------------|
Gb|---------0---------------0--------|---------0-------|---------2-0---0-|
Db|-----2-----2---2-----2-----2------|-----0-----2-----|-----0-------2---|
Ab|---2---2-----2-----2---2-----0h2--|---2---2-----0h2-|---0---0---------|
Eb|-0---------------0----------------|-3---------------|-2---------------|
    Look at the lives we're leading   The way we've always done before

(B/A C/A D/A) notas do dedilhado...

   A (toque essa nota e deixe soar enquanto faz o dedilhado)
Eb|----------0-------|---------0-------|--------3-2---2-|
Bb|------4-----4---4-|-----1-----1---1-|----3-------3---|
Gb|----4---4-----4---|---0---0-----0---|--2---2---------|
Db|------------------|-----------------|----------------|
Ab|-0----------------|-0---------------|-0--------------|
Eb|------------------|-----------------|----------------|

              Em
   My hands are tied

        G
   The billions shift from side to side

  D/F#      Em
   And the wars go on with brainwashed pride

            G                   D/F#
   For the love of God and our human rights

       Em
   And all these things are swept aside

        G
   By bloody hands time can't deny

   D/F#      Em
   And are washed away by your genocide

        G                   D/F#             A 
   And history hides the lies of our civil wars
(B/A C/A B/A D/A)

Eb|----------0-------|---------0-------|---------0-------|-----------|
Bb|------4-----4---4-|-----1-----1---1-|-----4-----4---4-|----3----3-|
Gb|----4---4-----4---|---0---0-----0---|---4---4-----4---|--2---2----|
Db|------------------|-----------------|-----------------|-----------|
Ab|-0----------------|-0---------------|-0---------------|-0---------|
Eb|------------------|-----------------|-----------------|-----------|

Em G Em G D/F#)2x  

                 G
   D'you wear a black amrband

              Bm
   When they shot the man

              Em
   Who said "Peace could last forever"

              G
   And in my first memories

              Bm7
   They shot Kennedy

     Em                     C           D
   And I went numb when I learned to see

         G                 Bm
   So I never fell for Vietnam

               Em
   We got the wall of D.C. to remind us all

             G
   That you can't trust freedom

          Bm7
   When it's not in your hands

          Em
   When everybody's fighting

               C       D
   For their promised land

      G         Bm                Em
   And I don't need your civil war

  G                Bm7                   Em C D
   It feeds the rich while buries the poor

    G          Bm
   Your power hungry sellin' soldiers

        Em
   In a human grocery store
   Ain't that fresh

  G               Bm          Em C D 
   I don't need your civil war

(G Bm7 Em G Bm7 Em C D)2x  

   Em                                 G
Eb|----------------------------------|----------------------------------|
Bb|----------------------------------|----------------------------------|
Gb|---------0----------------0-------|---------0---------------0--------|
Db|-----2-----2---2------2-----2-----|-----0-----0---0-----0-----0------|
Ab|---2---2-----2------2---2-----0h2-|---2---2-----2-----2---2-----0h2--|
Eb|-0---------------0----------------|-3---------------3----------------|
   Look at the shoes you're filling    Look at the blood we're spilling

    Em                                 G                 D/F#
Eb|----------------------------------|-----------------|-----------------|
Bb|----------------------------------|-----------------|-----------------|
Gb|---------0---------------0--------|---------0-------|---------2-0---0-|
Db|-----2-----2---2-----2-----2------|-----0-----2-----|-----0-------2---|
Ab|---2---2-----2-----2---2-----0h2--|---2---2-----0h2-|---0---0---------|
Eb|-0---------------0----------------|-3---------------|-2---------------|      
   Look at the world we're killing   The way we've always done before
   
    Em                                 G
Eb|----------------------------------|----------------------------------|
Bb|----------------------------------|----------------------------------|
Gb|---------0----------------0-------|---------0---------------0--------|   <--| 
Db|-----2-----2---2------2-----2-----|-----0-----0---0-----0-----0------|      | 
Ab|---2---2-----2------2---2-----0h2-|---2---2-----2-----2---2-----0h2--|      |
Eb|-0---------------0----------------|-3---------------3----------------|              Look in the doubt we've wallowed    Look at the leaders we've followed         |
                                                                               |
 Solo                                                                          |
Eb|-12~~-------------10~~-------------------| este é o solo que
Bb|----------------------------10-11---12~~-| entra no começo do dedilhado     |
Gb|-----------------------------------------| de cima -------------------------|
Db|-----------------------------------------|                            

      Em                                 G                 D/F#
Eb|----------------------------------|-----------------|-----------------|
Bb|----------------------------------|-----------------|-----------------|
Gb|---------0---------------0--------|---------0-------|---------2-0---0-|  <--|
Db|-----2-----2---2-----2-----2------|-----0-----0-----|-----0-------0---|     |
Ab|---2---2-----2-----2---2-----0h2--|---2---2-----0h2-|---0---0---------|     |
Eb|-0---------------0----------------|-3---------------|-2---------------|     |aqui 
   Look at the lies we've swallowed  And I don't want to hear no more          |também
                                                                               |são
 Solo                                                                          |os 2
Eb|-12~~-------------10~~-------------------------------------|                |juntos
Bb|----------------------------10-11---12~~--------------10~~-|                |
Gb|-----------------------------------------------------------|----------------|
Db|-----------------------------------------------------------|          

(B/A C/A D/A)
    A (toque essa nota e deixe soar enquanto faz o dedilhado)
Eb|----------0-------|---------0-------|--------3-2---2-|
Bb|------4-----4---4-|-----1-----1---1-|----3-------3---|
Gb|----4---4-----4---|---0---0-----0---|--2---2---------|
Db|------------------|-----------------|----------------|
Ab|-0----------------|-0---------------|-0--------------|
Eb|------------------|-----------------|----------------|



                   Em
   My hands are tied

       G
   For all I've seen has changed my mind

       D/F#       Em
   But still the wars go on as the years go by

            G               D/F#
   Wuth no love of God or human rights

          Em
   'Cause all these dreams are swept aside

        G                         D/F#
   By bloody hands of the hypnotized

         Em
   Who carry the cross of homicide

         G                   D/F#                
   And history bears the scars of our civil wars

A B/A C/A D/A

Eb|----------0-------|---------0-------|---------0-------|-----------|
Bb|------4-----4---4-|-----1-----1---1-|-----4-----4---4-|----3----3-|
Gb|----4---4-----4---|---0---0-----0---|---4---4-----4---|--2---2----|
Db|------------------|-----------------|-----------------|-----------|
Ab|-0----------------|-0---------------|-0---------------|-0---------|
Eb|------------------|-----------------|-----------------|-----------|

(Em G Em G D/F#)2x  

  (A  B/A  C/A  D/A  F/A  C/A)
   "We practice selective annihilation of mayors
   And government officials
   For example to create a vacuum
   Then we fill that vacuum
   As popular war advances.
   Peace is closer."

  G            Bm             Em
   I don't need your civil war

  G                    Bm7               Em C D
   It feeds the rich while buries the poor

     G          Bm
   Your power hungry sellin' soldiers

         Em
   In a human grocery store
   Ain't that fresh

      G           Bm             Em C D
   And I don't need your civil war

  G          Bm              Em
   I don't need your civil war

  G          Bm              Em C D
   I don't need your civil war

     G           Bm
   Your power hungry sellin' soldiers

          Em
   In a human grocery store
   Ain't that fresh

    G         Bm             Em C D
   I don't need your civil war

    G         Bm           Em G Bm7 Em C D G Bm Em
   I don't need one more war

        G         Bm           Em C D G
   And I don't need one more war

   Whaz so civil 'bout war anyway?

Comentarios del colaborador: Espero que les sirva

Calificar esta versión:
Aviso: Este fichero es trabajo propio de su transcriptor y representa su interpretación personal de la canción. El material contenido en esta página es para exclusivo uso privado, por lo que se prohibe su reproducción o retransmisión, así como su uso para fines comerciales.
Más versiones de Civil War, Guns N´ Roses
Civil War
acordes
Civil War (ver 2)
acordes
Civil War (ver 3)
acordes
Civil War
tablatura
Civil War (ver 2)
tablatura
Civil War (ver 3)
tablatura
Civil War (ver 4)
tablatura
Civil War (ver 5)
tablatura
Descubre más canciones de Guns N´ Roses