Civil War, Guns N´ Roses (tablatura) (ver 3)

Autor: steven101 | 22085 visualizaciones

INTRO:

Em
e------------------|
b------------------|
G----------0-------|
D----2---2---2---2-|
A------2-------2---|
E--0---------------| x2

G
e------------------|
b------------------|
G----------0-------|
D----0---0---0---0-|
A------2-------2---|
E--3---------------| x2

play the intro again 
The lead guitar jumps in with this part:
   Em           G
e--12--10----------|
b---------10-11-12-|
G------------------|
D------------------|
A------------------|
E------------------| x2
  D       Em
e--------------|
b-10-----------|
G----12-11-9---|
D--------------|
A--------------|
E--------------| Look at...

Distorted guitar comes in at the end 
of the verse:

e---x-----|
b---x-----|
G---x-----|
D---7-----|
A---7-----|
E---5-----|


        e-----x-------|
        b-----x-------|
        G-----x-------|
        D-----2-------|
        A-----2-------|
        E-----0-------|
My hands are tied


   e--x------------------x-----|
   b--x------------------x-----|
   G--x------------------7-----|
   D--5------------------7-----|
   A--5------------------5-----|
   E--3------------------x-----|
The billions shift from side to side

(play the rest of the verse like this)

End of the verse:
e--------------x---|
b--------------x---|
G--------------x---|
D--------------7---|
A--------------7---|
E--------------5---|
..of our civil war.


Fill:

e-------------3-0--0-0-----------|
b-345--5-5--3-0--0-0---3-------|
G-234--4-4-------------2-------|
D--------------------------------|
A--------------------------5~~~--|
E--------------------------------|


e-------------3-0--0-0----------------------------|
b-345--5-5--3-0--0-0---3---b8-7-----------------|
G-234--4-4-------------2--------9--7------------|
D--------------------------------------b10-9--7---|
A-------------------------------------------------|
E-------------------------------------------------|

e-------------3-0--0-0-----------|
b-345--5-5--3-0--0-0---3-------|
G-234--4-4-------------2-------|
D--------------------------------|
A--------------------------5~~~--|
E--------------------------------|

e-------------3-0--0-0-----------|
b-345--5-5--3-0--0-0---3-------|
G-234--4-4-------------2-------|
D--------------------------------|
A--------------------------------|
E--------------------------------|


G5       D5              E5 
I don't need your civil war  (...)
Calificar esta versión:
Aviso: Este fichero es trabajo propio de su transcriptor y representa su interpretación personal de la canción. El material contenido en esta página es para exclusivo uso privado, por lo que se prohibe su reproducción o retransmisión, así como su uso para fines comerciales.
Más versiones de Civil War, Guns N´ Roses
Civil War
acordes
Civil War (ver 2)
acordes
Civil War (ver 3)
acordes
Civil War
tablatura
Civil War (ver 2)
tablatura
Civil War (ver 3)
tablatura
Civil War (ver 4)
tablatura
Civil War (ver 5)
tablatura
Descubre más canciones de Guns N´ Roses