Arbolito, Grupo Nectar (tablatura) (ver 4)

Autor: Anónimo | 30781 visualizaciones

D-4-7---4---4-7-6-4-------4-7---4---4-7-6-4-------------  x2
G----4-7---4---4---4---------4-7---4---4----------------

e-10-10-10-9-8-10-10---9-9-9-7----------9-7- x2
B------------------------------9-7-9-10-----

B------10-12-12-------10-12-12-------10--------------------
D-11-11----------11-11----------11-11---9-11-9-11-9----11-- |
G---------------------------------------------------12----- |
                                                            |  x2
B------10-12-12-------10-12-12-------10-----------------    |
D-11-11----------11-11----------11-11----7-9-7-9-7---7--    |
G--------------------------------------------------9----    /

Bm                 G    A        D
Viendo tu que te alejas junto a mi amorcito
B                  G      A          D
cuentale que la espero junto al arbolito

coro:

D    A      Bm  D     A      Bm
Aquel arbolito donde estara escrito
D   A       Bm    A            Bm
tu nombre y el mio tu nombre y el mio

D    A    Bm   D      A       Bm
Aquel arbolito donde esta escrito
D     A        Bm    A              Bm
tu nombre y el mio, tu nombre y el mio

Bm              G     A         D
nunca habia llorado por ningun cariño
Bm                 G       A          D
y hoy como el arbolito lloro como un niño


coro:
D    A    Bm   D       A        Bm
Aquel arbolito donde estara escrito
D     A       Bm    A             Bm
tu nombre y el mio, tu nombre y el mio

D    A    Bm   D      A      Bm
Aquel arbolito donde esta escrito
D    A         Bm   A               Bm
tu nombre y el mio, tu nombre y el mio
A             Bm A Bm
tu nombre y el mio
Calificar esta versión:
Aviso: Este fichero es trabajo propio de su transcriptor y representa su interpretación personal de la canción. El material contenido en esta página es para exclusivo uso privado, por lo que se prohibe su reproducción o retransmisión, así como su uso para fines comerciales.
Más versiones de Arbolito, Grupo Nectar
Arbolito
tablatura
Arbolito (ver 2)
tablatura
Arbolito (ver 3)
tablatura
Arbolito (ver 4)
tablatura
Arbolito
bajo
Descubre más canciones de Grupo Nectar