Arbolito, Grupo Nectar (bajo)

Autor: Anónimo | 39745 visualizaciones

El arbolito  bueno aquí les dejo las posiciones de los bajos
Esta canción que   hizo popular al grupo néctar que en paz
Descanse…

El bajo de Bm
E|-------------
A|----2--5-----
D|---------4---
G|-------------

El bajo de  G
E|---3---------
A|-----2---5---
D|-------------
G|-------------


El bajo de A
E|-5-9-5-------
A|----7--------
D|-------------
G|-------------

El bajo de D
E|----------
A|--5--9-----5---
D|--------7-----
G|--------------

Intro 1
E |--2- - - - - - - -
A |- - - - 2 - - - - -  x6

Intro 2
Bm/G/A/D     x 2

Intro 3
D/A/D
D-A-Bm

Canto:
Bm x2 G x2
A x2 D x2

Coro:
D-A/Bm x3
A Bm

Esta canción la dedico a mi  mamita  Machi  :D
por el amor que nos da  a mi  familia y a mi
 XD : )   te quiero vieja……:P
Calificar esta versión:
Aviso: Este fichero es trabajo propio de su transcriptor y representa su interpretación personal de la canción. El material contenido en esta página es para exclusivo uso privado, por lo que se prohibe su reproducción o retransmisión, así como su uso para fines comerciales.
Más versiones de Arbolito, Grupo Nectar
Arbolito
tablatura
Arbolito (ver 2)
tablatura
Arbolito (ver 3)
tablatura
Arbolito (ver 4)
tablatura
Arbolito
bajo
Descubre más canciones de Grupo Nectar