Ignorancia, Gondwana (tablatura)

Autor: Anónimo | 42614 visualizaciones

Esta canción esta dedicada a todas aquellas personas q creen saberlo todo pero en realidad no saben nada.
¡Ahi les va!

Acordes:

        A    E     D     B    F#

e/----5----7----5----7----9----/
b/----5----9----7----7----11---/
g/----6----9----7----8----11---/
d/----7----9----7----9----11---/
a/----7----7----5----9----9----/
e/----5----x----x----7----x----/


En el intro hacer 2 golpes de rasgueo hacia abajo e inmediatamente hacer lo sgte:

e/---------------------------------
b/----7--5--------------------5----
g/-----------6--4------4-6---------  Ahí mantener el sonido con un poco de distorsión
d/------------------7--------------
a/---------------------------------
e/---------------------------------

Nuevamente hacer dos golpes de rasgueo para abajo y hacer lo sgte:

                                        [----------                    2 Veces            ----------]

e/---------------------------------------------------------------------4--------------------------------------
b/----7--5--------------------5--7--5------10--9--7---------4h5-----5----10--9--7----------------5------------
g/------------6--4-----4-6----------------------------9--6-----------------------------9--6--3s4--------------
d/-------------------7----------------------------------------------------------------------------------------
a/------------------------------------------------------------------------------------------------------------
e/------------------------------------------------------------------------------------------------------------

(CORO)

     A      E  D              E
Ignorancia...nuestro peor enemigo

     A      E  D                          E
Ignorancia...mejor voy a contarle a mis amigos que es...

     A       E  D  E 
Ignorancia...               (Quedarse en E 2 tiempos)

(VERSO_1)

A                     E          D                E
 Por que dices q me entiendes, si en realidad ni comprendes...

      A        E             D        E
Mi manera de ser..., y mi manera de ver...

A                        E        D                 E  
 Y por que dices q me entiendes, si en realidad ni comprendes...


          A          E                        A
Quien yo soy...,lo que por este mundo hago y doy... oh oh oh

A                    E        D                    E
 Y por que finges escuchar , cuándo te vengo a contar...

        A        E         D          E
La tristeza de ayer , tu deberías saber... ¡Que es!


(CORO)

     A    E  D              E
Ignorancia...nuestro peor enemigo

     A    E  D                            E
Ignorancia...mejor voy a contarle a mis amigos que es...

     A       
Ignorancia...              


La parte de las trompetas es más o menos asi :

e/-------------7--9-9-9-12--10--12--9----------7--9-9-9-12--10--12--14---
b/----9--10----------------------------------9--10-----------------------
g/-----------------------------------------------------------------------
d/-----------------------------------------------------------------------
a/-----------------------------------------------------------------------
e/-----------------------------------------------------------------------

(VERSO_2)

A                  E      D                 E
 Vas enseñando mentiras , con tu propaganda fulminas...

       A        E         D            E
Toda imaginación , vas matando la emoción...

A                   E             D                                      
 Como pretendes al cielo llegar , si en la tierra no hiciste 

 E                       A       E             D  
mas que mentir y traicionar , asi no lo vas a lograr... uoh...uoh...!

A                     E              D                        E
 Quieres hacer del espíritu ciencia , adaptando la historia a tu conveniencia

     A             E                       D             E     
Pero ya partió el tren (shu shu) , no te quedes en el andén ... de la ...


(CORO)

     A    E  D             E
Ignorancia...nuestro peor enemigo

     A    E  D                                           E
Ignorancia...mejor voy a contarle a mis amigos que es...

     A       E  D  E 
Ignorancia...              


SOLO:

e/------------------7---------------9-7--------------------------------------------7-----------------------
b/----10-9-7--------10-9-7-5s7------10-9-7-10-9-5s7-9-7----10-9-7---------10-9-7-5s7°-7-9-10-10s12-10-9-7--
g/-------------9-6------------------------------------------------------------9-6--------------------------
d/---------------------------------------------------------------------------------------------------------
a/---------------------------------------------------------------------------------------------------------
e/---------------------------------------------------------------------------------------------------------


e/------------------7---------------9-7----------------------------------------------7---------------------
b/----10-9-7--------10-9-7-5s7------10-9-5s7-10-9-5s7-9-7----10-9-7--------10-9-7-5s7----------------------
g/-------------9-6---------------------------------------------------------------9-6-----------------------
d/---------------------------------------------------------------------------------------------------------
a/---------------------------------------------------------------------------------------------------------
e/---------------------------------------------------------------------------------------------------------

(CORO) ¡¡¡sube un tono!!!

     B   F#  E                F#
Ignorancia...nuestro peor enemigo

     B   F# E                             F#
Ignorancia...mejor voy a contarle a mis amigos que es...

     B    
Ignorancia...      

SOLO FINAL:

    [----------               2 VECES           ----------]
e/---------------------------6--------------------------------
b/----12-11-9--------6h7---7----12-11-9-------------7---------
g/---------------11-8-------------------------11-8-5s6--------
d/------------------------------------------------------------      
a/------------------------------------------------------------
e/------------------------------------------------------------


Y esto es todo, si hay errores en la letra es por q la saque de una versión en vivo .
Espero les sea de utilidad esta transcripción y como dijo Quique Neira en viña:

        ¡APOYEMOS A LOS ARTISTAS MIENTRAS ESTEN VIVOS!


Si desean intercambiar tablaturas Y/o acordes .manden un mail
Calificar esta versión:
Aviso: Este fichero es trabajo propio de su transcriptor y representa su interpretación personal de la canción. El material contenido en esta página es para exclusivo uso privado, por lo que se prohibe su reproducción o retransmisión, así como su uso para fines comerciales.
Más versiones de Ignorancia, Gondwana
Ignorancia
acordes
Ignorancia (ver 2)
acordes
Ignorancia
tablatura
Ignorancia
bajo
Descubre más canciones de Gondwana