Ignorancia, Gondwana (bajo)

Autor: Anónimo | 14152 visualizaciones

Aqui les dejo los Riffs base osea uno para cada parte
queda en ustedes unirlos y escuchar la cancion


Principio x2

G|-------|
D|-------|
A|-0-0---|
E|-------|

Intro y coros
                             Cuando termina el
       Intro y coros         intro termina asi
G|-------------------------|------------------|
D|-------------------------|------------------|
A|-----------4-2-4-0-2-----|-----------4-2-4~-|
E|-0-2-2-2-2-----------4---|-0-2-2-2-2--------|

Versos

G|--------------------------------------------|
D|-------------2-4-4-2--0-4-4-0-2--2-4-4-2----|
A|-0-0-4-4-0-4--------------------------------|
E|--------------------------------------------|

Solo

G|--------------------------------------------|
D|-----4-4-------9-9-------11-11-------9-9----|
A|-5-5-----5-7-7-----7-9-9-------9-7-7-----7--|
E|--------------------------------------------|

                       Aqui cambia solo 
                       en una parte
                      |-----------------------|
                      |-----------------------|
                      |-9-9-----9-7-7-----7---|
                      |-----9-9-------7-7-----| 

Ultimo coro

G|------------------------|
D|------------------------|
A|-----------6-4-6-2-4-1--|
E|-2-4-4-4-4--------------|

Final

G|-------|
D|-------|
A|-2-2---|
E|-------|


Cualquier duda o comentario me escriben
Los Nietos...Ska...Punk...Reggae...
Calificar esta versión:
Aviso: Este fichero es trabajo propio de su transcriptor y representa su interpretación personal de la canción. El material contenido en esta página es para exclusivo uso privado, por lo que se prohibe su reproducción o retransmisión, así como su uso para fines comerciales.
Más versiones de Ignorancia, Gondwana
Ignorancia
acordes
Ignorancia (ver 2)
acordes
Ignorancia
tablatura
Ignorancia
bajo
Descubre más canciones de Gondwana