Mientras Viva, Generación 12 (tablatura) (ver 2)

Autor: Anónimo | 45953 visualizaciones

INTRO: Bm - D - A - G
       Bm - D - A - G

e|----------|-------2-|-------0-|-------3---|
B|--------3-|-----3---|-----2---|-----3-----|
G|------4---|---2-----|---2-----|---0-------|
D|----4-----|-0-------|---------|-----------|
A|--2-------|---------|-0-------|-----------|
E|----------|---------|---------|-3---------|
    Bm           D        A          G

INTRO 2
Bm - D - A
B|-6h7------------|
G|------8-7-6-7---| (5X)
D|--------------8-|


ESTROFA

 Bm                      G
Me encontré en la oscuridad sin ti
              D/F#
Hasta que encontré una luz
        E       G - A
Fue tu luz oh Jesús
 Bm                      G
En la cruz en ella encontré a Jesús
            D/F#       E
Me diste tu vida Yo volví a nacer
        G      A
Y ahora yo te cantare


CORO

Bm       D   A         G
Mientras viva te cantare

Bm       D          A     G
Hasta mi último suspiro te alabare

Bm       D      A         G
Eres la fuente de mi alegría

Bm    D    A
A ti cantare  (2X)



SOLO:

A|--2--4--5--7--9--5--4--2--4--5--9--7|

e|---14------------------------------------------------|
B|-------12-15-14-15-17-12-14-15-14--15-17------|
LO DE LA SEGUNDA CUERDA SE REPITE COMO TRES VECES

fin

 A             Bm - G
Eres todo para mí
 A
Dueño de mi vida
G
Y mi alabanza... (Coro)
Calificar esta versión:
Aviso: Este fichero es trabajo propio de su transcriptor y representa su interpretación personal de la canción. El material contenido en esta página es para exclusivo uso privado, por lo que se prohibe su reproducción o retransmisión, así como su uso para fines comerciales.
Más versiones de Mientras Viva, Generación 12
Mientras Viva
acordes
Mientras Viva
tablatura
Mientras Viva (ver 2)
tablatura
Descubre más canciones de Generación 12