Mientras Viva, Generación 12 (tablatura)

Autor: Anónimo | 37163 visualizaciones

INTRO:

e|---------0|--------0-|-------0-|-----3-----|
B|-------3--|------3---|-----0---|--------3--|
G|-----2----|----2-----|---2-----|---0-------|
D|----------|----------|---------|-----------|
A|--2-------|--0-------|-0-------|-----------|
E|----------|----------|---------|-3---------|
    Bm           D        A          G


INTRO 2
Bm - D - A
B|-6h7------------|
G|------8-7-6-7---|
D|--------------8-|


ESTROFA

 Bm                      G
Me encontré en la oscuridad sin ti
              D/F#
Hasta que encontré una luz
        E       G - A
Fue tu luz oh Jesús
 Bm                      G
En la cruz en ella encontré a Jesús
            D/F#       E
Me diste tu vida Yo volví a nacer
        G      A
Y ahora yo te cantare


CORO

Bm       D   A         G
Mientras viva te cantare

Bm       D          A     G
Hasta mi último suspiro te alabare

Bm       D      A         G
Eres la fuente de mi alegría

Bm    D    A
A ti cantare  (2X)



SOLO:

previo:

Bm - A/C# - D - D - E - E - F#        D - A/C# - Bm
     A/C# - D - F# - E - E


e|-------------------------------------------------------|
B|---17/(x3)----------------------------------------17//-|
G|----------19-16-19-18---18-19-16---16-18-19-19-18------|
D|-------------------------------------------------------|
A|-------------------------------------------------------|
E|-------------------------------------------------------|

e|----------------------------------------------------------|
B|-------------------------------------------------17p19--17|
G|----16-18-19-19-18----18-19-16----16-18-19-19-18----------|
D|----------------------------------------------------------|
A|----------------------------------------------------------|
E|----------------------------------------------------------|

17/(x3)--- aki tienen ke jalar la cuerda 3  veces


 A             Bm - G
Eres todo para mí
 A
Dueño de mi vida
G
Y mi alabanza... (Coro)



Weno esta es mi segundo aporte espero ke les sriva de algo
como ya saben cualkier duda o sugerencia pueden escribirme a
mi correo hs306_66@hotmail.com
Hans Steven De La Cruz
Lima Peru
Calificar esta versión:
Aviso: Este fichero es trabajo propio de su transcriptor y representa su interpretación personal de la canción. El material contenido en esta página es para exclusivo uso privado, por lo que se prohibe su reproducción o retransmisión, así como su uso para fines comerciales.
Más versiones de Mientras Viva, Generación 12
Mientras Viva
acordes
Mientras Viva
tablatura
Mientras Viva (ver 2)
tablatura
Descubre más canciones de Generación 12