Mad World, Gary Jules (tablatura)

Autor: NIKITO117 | 20176 visualizaciones

PONES EL CAPO EN EL PRIMER O SEGUNDO TRASTE   Intro

Em A 
| | | | | | | | 
|-3---7---2---3---0---2-------------------0---------------0---3-- 
|---------0---------------3-p-2-----------2---------------2------ 
|---------------------------------2------------------------------ 
|-----------------2---------------------------------------------- 
|---------------------------------0---------------0-------------- 
|-0-------------------------------------------------------------- 

Em A 
| | | | | | | | 
-----7---2---3---0---2---3---5----------------------------------|
---------0-------------------------------5---------------5------|
-----------------------------------------6---------------6------|
-----------------2----------------------------------------------|
---------------------------------0---------------0--------------|
-0--------------------------------------------------------------|



Verse (simple)

Em G 
| | | | | | | | 
|---------0---0---3---3---0---0---7---7-------7-------3---------- 
|---------------------------------------------------------------- 
|---------------------------------------------------------------- 
|---------2---------------2---------------5---------------5------ 
|---------------------------------------------------------------- 
|-0---------------0---------------3---------------3-------------- 

D A 
| | | | | | | | 
-5---5-------5-------------------5---5-------5-------3-p-2---0--|
---------------------7------------------------------------------|
---------7---------------7---------------2----------------------|
----------------------------------------------------------------|
-5---------------5---------------0---------------0--------------|
----------------------------------------------------------------|


Verse (more complex)

Em G 
| | | | | | | | 
|---------0---0---3---3---0---0---7---7-------7-------3---------- 
|---------0---------------0-------------------------------------- 
|---------0------------------------------------------------------ 
|-2---------------------------------------5---------------5------ 
|-----------------------------------------5---------------5------ 
|-0---------------0---------------3---------------3-------------- 

D A 
| | | | | | | | 
-5---5-------5-------------------5---5-------5-------3---2---0--|
---------------------7------------------------------------------|
---------7-------------------------------2----------------------|
---------7---------------7---------------2----------------------|
-5---------------5---------------0---------------0--------------|
----------------------------------------------------------------|



Chorus

Em A 
| | | | | | | | 
|---------0---0---3---3---7---7---9-------5---5---9---9---5---5-- 
|-----------------0---------------------------------------------- 
|-----------------0---------------------------------------------- 
|---------2-------------------------------7---------------7------ 
|-------------------------7---------------7---------------7------ 
|-0---------------0---------------5---------------5-------------- 

Em A 
| | | | | | | | 
-0-----------0---3---3---7---7---9---5---5---5---9---9---5---5-- 
-0-------------------------------------------------------------- 
-----------------0---------------------------------------------- 
---------2-------------------------------7---------------7------ 
-------------------------7---------------7---------------7------ 
-0---------------0---------------5---------------5-------------- 

Em A 
| | | | | | | | 
-0-----------0---3---3---7---7---9-------5---5---9---9---5---5-- 
-0-------------------------------------------------------------- 
-----------------0---------------------------------------------- 
---------2-------------------------------7---------------7------ 
-------------------------7---------------7---------------7------ 
-0---------------0---------------5---------------5-------------- 

Em A 
| | | | | | | | 
-0-----------0---3---3---7---7---9---5---5---5---9---9---5---5-- 
-----------------0---------------------------------------------- 
-----------------0---------------------------------------------- 
---------2------------------------------------------------------ 
-------------------------7-------0------------------------------ 
-0---------------0---------------------------------------------- 

Em A 
| | | | | | | | 
-----------------3---------------0------------------------------ 
-----0-----------0---------------------------------------------- 
-0-----------0---0-----------------------2---------------2---0-- 
---------4-------2---4---0-------2-------2---------------2------ 
-----------------------------4---0---------------0-------------- 
-0-------------------------------------------------------------- 
Mad World 

Em A 
| | | | | | | | 
-----------------3---------------0------------------------------|
-----0-----------0----------------------------------------------|
-------------0---0-------0---2-----------2---------------2------|
---------4-------2---4-----------2-------2---------------2------|
---------------------------------0---------------0--------------|
-0--------------------------------------------------------------|

Comentarios del colaborador: NO POS MI SEGUNDA ROLA NO MAS POR Q NO TIENEN A ESTE ARTISTA JEJEJE

Calificar esta versión:
Aviso: Este fichero es trabajo propio de su transcriptor y representa su interpretación personal de la canción. El material contenido en esta página es para exclusivo uso privado, por lo que se prohibe su reproducción o retransmisión, así como su uso para fines comerciales.
Más versiones de Mad World, Gary Jules
Mad World
acordes
Mad World
tablatura
Descubre más canciones de Gary Jules