Walk, Foo Fighters (tablatura) (ver 2)

Autor: atlas017 | 32937 visualizaciones



Verso y estribillo:


E----------------------------------------------------------------
B----------------------------------------------------------------
G--9---9---9---9---9---9---9---9---9---9---9---9---9---9---9---9-
D--7---7---7---7---7---7---7---7---7---7---7---7---7---7---7---7-     
A--0---0---0---0---0---0---0---0---0---0---0---0---0---0---0---0-
E----------------------------------------------------------------


E----------------------------------------------------------------
B----------------------------------------------------------------
G--9---9---9---9---9---9---9---9---9---9---9---9---9---9---9---9-
D--9---9---9---9---9---9---9---9---9---9---9---9---9---9---9---9-
A--7---7---7---7---7---7---7---7---7---7---7---7---7---7---7---7-
E----------------------------------------------------------------


E----------------------------------------------------------------
B----------------------------------------------------------------
G----------------------------------------------------------------
D--9---9---9---9---9---9---9---9---9---9---9---9---9---9---9---9-
A--9---9---9---9---9---9---9---9---9---9---9---9---9---9---9---9-
E--7---7---7---7---7---7---7---7---7---7---7---7---7---7---7---7-


E----------------------------------------------------------------
B----------------------------------------------------------------
G--5---5---5---5---5---5---5---5---5---5---5---5---5---5---5---5-
D--5---5---5---5---5---5---5---5---5---5---5---5---5---5---5---5-
A--7---7---7---7---7---7---7---7---7---7---7---7---7---7---7---7-
E----------------------------------------------------------------





Puente y ultimos estribillos:


E--------------------------------
B--2---2---2---2---2---2---2---2-
G--2---2---2---2---2---2---2---2-
D--2---2---2---2---2---2---2---2-       X4
A--0---0---0---0---0---0---0---0-
E--------------------------------


E--------------------------------
B--------------------------------
G--1---1---1---1---1---1---1---1-
D--2---2---2---2---2---2---2---2-       X4
A--2---2---2---2---2---2---2---2-
E--------------------------------


E--------------------------------
B--2---2---2---2---2---2---2---2-
G--2---2---2---2---2---2---2---2-
D--x---x---x---x---x---x---x---x-       X2
A--2---2---2---2---2---2---2---2-
E--------------------------------


E--------------------------------
B--3---3---3---3---3---3---3---3-
G--2---2---2---2---2---2---2---2-
D--0---0---0---0---0---0---0---0-       X1
A--------------------------------
E--------------------------------


E--1---1---1---1---1---1---1---1-
B--3---3---3---3---3---3---3---3-
G--2---2---2---2---2---2---2---2-
D--------------------------------       X1
A--------------------------------
E--------------------------------





Calificar esta versión:
Aviso: Este fichero es trabajo propio de su transcriptor y representa su interpretación personal de la canción. El material contenido en esta página es para exclusivo uso privado, por lo que se prohibe su reproducción o retransmisión, así como su uso para fines comerciales.
Más versiones de Walk, Foo Fighters
Walk
acordes
Walk (ver 2)
acordes
Walk
tablatura
Walk (ver 2)
tablatura
Descubre más canciones de Foo Fighters