Walk, Foo Fighters (tablatura)

Autor: facundo14 | 19195 visualizaciones



Bueno amigos les dejo la intro de Walk. (x5 es que se repite 5 veces) lo aclaro para que no crean que es una nota muerta

e|-----5-----7--5-----5--x5-----------4-----7--4-----5----------|
B|--5-----5--------5---------------5-----5--------5-------------|
G|--------------------------------------------------------------|
D|--------------------------------------------------------------|
A|--------------------------------------------------------------|
E|--------------------------------------------------------------|

e|-----5-----7--5-----7----------------5------7--5----5----------|
B|---------------------------------6-------6-------6-------------|
G|--7-----7--------7---------------------------------------------|
D|---------------------------------------------------------------|
A|---------------------------------------------------------------|
E|---------------------------------------------------------------|





Calificar esta versión:
Aviso: Este fichero es trabajo propio de su transcriptor y representa su interpretación personal de la canción. El material contenido en esta página es para exclusivo uso privado, por lo que se prohibe su reproducción o retransmisión, así como su uso para fines comerciales.
Más versiones de Walk, Foo Fighters
Walk
acordes
Walk (ver 2)
acordes
Walk
tablatura
Walk (ver 2)
tablatura
Descubre más canciones de Foo Fighters