Mas Caliente Que El Sol, Fobia (tablatura)

Autor: Anónimo | 23370 visualizaciones

Solo

E||------15-----15----15-15h14h12----15----15----15-|
B||--13b----13b----13b------------15----13b---13b---|
G||-------------------------------------------------|
D||-------------------------------------------------|
A||-------------------------------------------------|
E||-------------------------------------------------|



------15-----15----15-18h17h15----15-------------15-|
--13b----13b----13b------------18----18h17h15-------|
----------------------------------------------17----|
----------------------------------------------------|
----------------------------------------------------|
----------------------------------------------------|



------15-----15----15-15h14h12----15----15----15-|
--13b----13b----13b------------15----13b---13b---|
-------------------------------------------------|
-------------------------------------------------|
-------------------------------------------------|
-------------------------------------------------|



------15-----15----15-18h17h15----15-------------15-|
--13b----13b----13b------------18----18h17h15-------|
----------------------------------------------17----|
----------------------------------------------------|
----------------------------------------------------|
----------------------------------------------------|



----------------------------------------------|
----------------------------------------------|
---------15-----15-17-17b17-15----15-15----15-|
--17--17-----17----------------17-------17----|
----------------------------------------------|
----------------------------------------------|



-------------------------------15-15-15-15-15-|
-------------------------------15-15-15-15-15-|
---------15-----15-17-17b17-15----------------|
--17--17-----17-------------------------------|
----------------------------------------------|
----------------------------------------------|



-----------------------------------|-----------------------------------||
-----------------------------------|-----------------------------------||
--0--0-3h0-0-5h0-0-7h0-0-10h0-11h0-|--12h0-0-10h0-0-7h0-6h0-5h0-3--12--||
-----------------------------------|-----------------------------------||
-----------------------------------|-----------------------------------||
-----------------------------------|-----------------------------------||

Aqui esta el Solo de Mas caliente que el Sol,
si tienen alguna duda mandenme un mail...Saludos a Mxl BC.
Calificar esta versión:
Aviso: Este fichero es trabajo propio de su transcriptor y representa su interpretación personal de la canción. El material contenido en esta página es para exclusivo uso privado, por lo que se prohibe su reproducción o retransmisión, así como su uso para fines comerciales.
Más versiones de Mas Caliente Que El Sol, Fobia
Mas Caliente Que El Sol
acordes
Mas Caliente Que El Sol
tablatura
Mas Caliente Que El Sol
bajo
Descubre más canciones de Fobia