Mas Caliente Que El Sol, Fobia (bajo)

Autor: Anónimo | 14138 visualizaciones

KE PASHOW MORROS!!!!!! BUENO LES MANDO LA TAB DE 
'MAS CALIENTE QUE EL SOL - FOBIA' ESTA CHIDA LA NETA 
LA CANCION Y BIEN FACIL, AY LA VEN SALUDOS A MIS AMIGOS Y AMIGAS......
ARRIBA LOS PUMAS A WEBO!!! ARRIBA LAS MUJERES GUAPAS!!! 
Y TAMBIEN ARRIBA BLINK-182!!!!!!!!!

INTRO
G------------------------
D------------------------
A-3----------------------
E---1---3----------------
  C A#  G

G------------------------
D-00-3-55555555555------- X2VECES
A------------------------
E------------------------
  D  F   G

G--------------------------
D-00-3-5-------------------
A----------3--1---3--1-----
E--------3------3----------
   D F G G C  A#G C  A#
BABY, BABY SIENTO...
G------------------------
D-5555555555-------------
A------------------------
E------------------------
      G
VERSO
G------------------------
D-00-3-5555555555555-----
A------------------------
E------------------------ 
  D F     G
CORO: HOY TENGO FUEGO EN EL CUERPO...
G--------------------------
D-00-3-5-------------------
A----------3--1---3--1-----
E--------3------3----------
  D F G  G C  A#G C  A# 
CALIENTE QUE EL SOL...
G------------------------
D-5555555555-------------
A------------------------
E------------------------
      G
SE REPITE EL VERSO Y EL CORO, MORROS

EN EL SOLO:
G----------------------------
D-5555555555-00-3-555555555--
A----------------------------
E----------------------------
   G         D F    G
SE REPITE EL CORO

ULTIMO CORO:
VA ESTA FIGURA RAPIDA, ESCUCHENLA BIEN
G---------------------------------------
D-00-33-55-00-33-55-00-33-55----55555--- UN CHINGO DE VECES, ALLI USTEDES
A---------------------------3-1--------- CHEQUEN
E---------------------------------------
  D  F  G  D  F  G  D  F  G C A#  G
OUTRO: CUANDO CANTA 'SOOOOOOOOOOOOOOL'
G--------------------------
D-555555555---5555555------
A----------3-1-------1-3---
E--------------------------
    G      C A#  G   A# C
FIJENSE BIEN MORROS TERMINA EN C (DO)
Calificar esta versión:
Aviso: Este fichero es trabajo propio de su transcriptor y representa su interpretación personal de la canción. El material contenido en esta página es para exclusivo uso privado, por lo que se prohibe su reproducción o retransmisión, así como su uso para fines comerciales.
Más versiones de Mas Caliente Que El Sol, Fobia
Mas Caliente Que El Sol
acordes
Mas Caliente Que El Sol
tablatura
Mas Caliente Que El Sol
bajo
Descubre más canciones de Fobia