Hipnotizame, Fobia (tablatura)

Autor: djkikeone | 29949 visualizaciones

INTRODUCCION

e----------------------------------
B---------------------0-----0------
G---0-------0-------7-----7---7----
D-----7---7---7---5-----4-------4--
A-5-----4-------0------------------
E----------------------------------

e---------------
B---------------
G-------0-------  x 2
D---4-----4---4-
A-2---2-----2---
E---------------

VERSOS

Pude cerrar los ojos mas no pude dejar de verte,
e----------------------------------------------------------------
B---------------------0-----0------------------------------------
G---0-------0-------7-----7---7------------0-------------0-------
D-----7---7---7---5-----4-------4------4-----4---4---4-----4---4-
A-5-----4-------0--------------------2---2-----2---2---2-----2---
E----------------------------------------------------------------

y dejar de dormir mas no dejar de soñar.
e-------------------------------------------------------------------
B---------------------0-----0---------------------------------------
G---0-------0-------7-----7---7-------------------------------------
D-----7---7---7---5-----4-------4----------4-------------5----------
A-5-----4-------0----------------------4-----4---4---5-----5---0----
E------------------------------------2---2-----2---3---3-----3------

Puedo callar las voces mas no puedo dejar de oírte,
e----------------------------------------------------------------
B---------------------0-----0------------------------------------
G---0-------0-------7-----7---7------------0-------------0-------
D-----7---7---7---5-----4-------4------4-----4---4---4-----4---4-
A-5-----4-------0--------------------2---2-----2---2---2-----2---
E----------------------------------------------------------------

puedo dejar de ser pero no puedo dejar de estar.
e-------------------------------------------------------------------
B---------------------0-----0---------------------------------------
G---0-------0-------7-----7---7-------------------------------------
D-----7---7---7---5-----4-------4----------4-------------5----------
A-5-----4-------0----------------------4-----4---4---5-----5---0----
E------------------------------------2---2-----2---3---3-----3------

CORO (En el coro utiliza un arpegio sencillo para acompañar)

C    D       Am   F
Besame, hipnotízame,

C                             G
ya no me importa mas róbame el alma, hechizame

Puedo calmar mi mente mas no puedo calmar mi sangre,
e----------------------------------------------------------------
B---------------------0-----0------------------------------------
G---0-------0-------7-----7---7------------0-------------0-------
D-----7---7---7---5-----4-------4------4-----4---4---4-----4---4-
A-5-----4-------0--------------------2---2-----2---2---2-----2---
E----------------------------------------------------------------

y puedo ser sincero sin dejar de mentir.
e-------------------------------------------------------------------
B---------------------0-----0---------------------------------------
G---0-------0-------7-----7---7-------------------------------------
D-----7---7---7---5-----4-------4----------4-------------5----------
A-5-----4-------0----------------------4-----4---4---5-----5---0----
E------------------------------------2---2-----2---3---3-----3------

Puedo quedarme cerca, mas no puedo dejar de huirte
e----------------------------------------------------------------
B---------------------0-----0------------------------------------
G---0-------0-------7-----7---7------------0-------------0-------
D-----7---7---7---5-----4-------4------4-----4---4---4-----4---4-
A-5-----4-------0--------------------2---2-----2---2---2-----2---
E----------------------------------------------------------------

puedo cambiar mi vida, mas no puedo cambiarme a mi
e-------------------------------------------------------------------
B---------------------0-----0---------------------------------------
G---0-------0-------7-----7---7-------------------------------------
D-----7---7---7---5-----4-------4----------4-------------5----------
A-5-----4-------0----------------------4-----4---4---5-----5---0----
E------------------------------------2---2-----2---3---3-----3------

CORO

C    D       Am   F
Besame, hipnotízame,

C                             G
ya no me importa mas róbame el alma hechizame

C    D       Am   F
Besame, intoxícame,

           C                    G
ya no me importa ser, un ser sin alma atrápame.

INTERLUDE

e|---------------------------------------------
B|---------------------------------------------
G|-----------10-10-10-10-10--------------------
D|-7-7-7-7---10-10-10-10-10---10-10-10-10--10--
A|-7-7-7-7---8--8--8--8--8----10-10-10-10--10--
E|-5-5-5-5--------------------8--8--8--8---8---

e|---------------------------------------------
B|---------------------------------------------
G|-----------10-10-10-10-10--------------------
D|-7-7-7-7---10-10-10-10-10----10-10-10-10-10--
A|-7-7-7-7---8--8--8—-8--8-----10-10-10-10-10--
E|-5-5-5-5---------------------8--8—-8--8--8---

e|----------------------------------
B|----------------------------------
G|----------------------------------
D|-9/10/9-10-2-2-2-2-2---3-3-3-3-3--
A|-9/10/9-10-2-2-2-2-2---3-3-3-3-3--
E|-7/8-/7/8--0-0-0-0-0---1-1-1-1-1--

SOLO DE VIOLIN

MIENTRAS TOCAS EL SOLO DE VIOLIN TOCAS LAS NOTAS DEL CORO
e-8-7-8-7-8-7-8-7-12----------------
B--------------------12-10----------
G-----------------------------------
D-----------------------------------
A-----------------------------------

e-12-15-10-15-12-15----12---10----10---
B-------------------13----12---10----8-
G--------------------------------------
D--------------------------------------
A--------------------------------------
E--------------------------------------

C    D       Am   F
Besame, hipnotízame,

C                             G
ya no me importa mas róbame el alma hechizame

C    D       Am   F
Besame, intoxícame,

           C                    G
ya no me importa ser, un ser sin alma atrápame.

ULTIMO SOLO DE VIOLIN ESTO SE TOCA EN EL ULTIMO CORO

e-8-7-8-7-8-7-8-7-12----------------
B--------------------12-10----------
G-----------------------------------
D-----------------------------------
A-----------------------------------

e-12-15-10-15-12-15----12---10----10---
B-------------------13----12---10----8-
G--------------------------------------
D--------------------------------------
A--------------------------------------
E--------------------------------------

e-8-7-8-7-8-7-8-7-8-7-8--12-----
B------------------------12-----
G------------------------12-----
D-------------------------------
A-------------------------------
E-------------------------------

Comentarios del colaborador: salud0s atoda la bandera

Calificar esta versión:
Aviso: Este fichero es trabajo propio de su transcriptor y representa su interpretación personal de la canción. El material contenido en esta página es para exclusivo uso privado, por lo que se prohibe su reproducción o retransmisión, así como su uso para fines comerciales.
Más versiones de Hipnotizame, Fobia
Hipnotizame
acordes
Hipnotizame
tablatura
Hipnotízame
bajo
Hipnotízame
armonica
Descubre más canciones de Fobia