Hipnotízame, Fobia (bajo)

Autor: Anónimo | 18164 visualizaciones

Aquí les mando esta Tab p/Bajo de ésta cancion que es una de mis favoritas de
Fobia espero que la disfruten..¡¡¡¡amor y paz!!!!


  Verso:
  0:27     0:35
G:--------|--------|
D:--------|--------|
A:--2--5--|--2--5--|
E:3------2|3------2|

  Coro:
  0:40
G:---------------------|
D:---------------------|
A:-3--5--------3~~~----|
E:------5/1--------3~~~|

  Verso:
  0:59     1:07     1:15     1:23     1:31
G:--------|--------|--------|--------|--------|
D:--------|--------|--------|--------|--------|
A:--2--5--|--2--5--|--2--5--|--2--5--|--2--5--|
E:3------2|3------2|3------2|3------2|3------2|

  Coro:
  1:36                  1:52
G:---------------------|---------------------|
D:---------------------|---------------------|
A:-3--5--------3~~~----|-3--5--------3~~~----|
E:------5/1--------3~~~|------5/1--------3~~~|

  Variación:
  2:08
G:------------------|------------------------------|
D:------------------|------------------------------|
A:-----7p8-888/333/2|----7p8-888/333-2-333-777-888-|
E:-555--------------|555---------------------------|

  2:20
  Sigue la parte donde entran el violín,el chelo;
  si quieren pueden tocar las notas del coro, pero en
  realidad no se toca el bajo.

  Ahora si entra el bajo otra vez:

  Coro:
  2:36                  2:52
G:---------------------|--------------------|
D:---------------------|--------------------|
A:-3--5--------3~~~----|-3--5-------3~~~----|
E:------5/1--------3~~~|------5/1-------3~~~|

  Final:
  3:08
G:---------------|
D:---------------|
A:-3---3---3---3-|
E:---3---3---3---|


Dudas o comentarios pueden escribirme a mi mail:
duff_jc@hotmail.com
Si alguiene está interesado en formar una banda escribanme.
Bye!!!
Calificar esta versión:
Aviso: Este fichero es trabajo propio de su transcriptor y representa su interpretación personal de la canción. El material contenido en esta página es para exclusivo uso privado, por lo que se prohibe su reproducción o retransmisión, así como su uso para fines comerciales.
Más versiones de Hipnotízame, Fobia
Hipnotizame
acordes
Hipnotizame
tablatura
Hipnotízame
bajo
Hipnotízame
armonica
Descubre más canciones de Fobia