El Linyera, Flema (tablatura)

Autor: Anónimo | 41027 visualizaciones



----------------------------------------------------------------------
--------------10-10------------------8-8---7-8-7----------------------
-7--9--7---9b------9b(11)b9p7------9-------------9-9b(11)b9p7---------
----------------------------------------------------------------------
----------------------------------------------------------------------
----------------------------------------------------------------------

----------------------------------------------------------------------
-------------------------10-----------------15p12----12-12b-12v-------
-7h9p7--------------7-9b-----9-----12h14p12-------14------------------
-------10p7----7-10---------------------------------------------------
------------10--------------------------------------------------------
----------------------------------------------------------------------

----------------------------------------------------------------------
10----------------10--------------------------------------------------
---9p7--------7-9b---9b(11)b9p7---------------------------------------
--------7-10----------------------------------------------------------
----------------------------------------------------------------------
----------------------------------------------------------------------

Este es el punteo, lo saque de oido asi que puede tener errores
cualquier duda, consulta o corrección mandar un mail a [email protected]
nada más y Aguante Flema Carajooooooooooooo!!!

Fuente original: LaCuerda
Colaborador original: Leonardo [[email protected]]





Calificar esta versión:
Aviso: Este fichero es trabajo propio de su transcriptor y representa su interpretación personal de la canción. El material contenido en esta página es para exclusivo uso privado, por lo que se prohibe su reproducción o retransmisión, así como su uso para fines comerciales.
Más versiones de El Linyera, Flema
El Linyera
acordes
El Linyera
tablatura
El Linyera
bajo
Descubre más canciones de Flema