El Linyera, Flema (bajo)

Autor: Anónimo | 35286 visualizaciones



“él va con su....”

G---------------------------------
D---------------------------------
A-----5-5-5-5---------5-5-5-5-5-5-
E-------------5-5-5-5-------------

“anda siempre....”

G-----------------------------
D-----------------------------
A---------------------5-5-5-5-
E-----3-3-3-3-5-5-5-5---------

“y si no encuentra...”

G--------------------------------
D--------------------------------
A---------------------5-5-4-4-2-2
E-----3-3-3-3-5-5-5-5------------

“cuando empieza......”

G-----------------------------
D-----------------------------
A---------------------5-5-5-5-
E-----3-3-3-3-5-5-5-5---------


Toda igual hasta...

“porque es:

 el linyera se emborracha....”

G------------------------------------
D------------------------------------
A-----------------------------5-5-5-5
E-----5-5-5-5-3-3-3-3-5-5-5-5--------

“si es botella.....”

G------------------------------
D------------------------------
A---------------------5-5-5-2-2
E-----3-3-3-3-5-5-5-5----------

“lo unico que .....”

G-----------------------------
D-----------------------------
A---------------------5-5-5-5-
E-----3-3-3-3-5-5-5-5---------


aguante flema locos 
mi msn es : [email protected]

Fuente original: LaCuerda
Colaborador original: franco cuello [[email protected]]





Calificar esta versión:
Aviso: Este fichero es trabajo propio de su transcriptor y representa su interpretación personal de la canción. El material contenido en esta página es para exclusivo uso privado, por lo que se prohibe su reproducción o retransmisión, así como su uso para fines comerciales.
Más versiones de El Linyera, Flema
El Linyera
acordes
El Linyera
tablatura
El Linyera
bajo
Descubre más canciones de Flema