Cancer, Flema (tablatura)

Autor: Anónimo | 42061 visualizaciones



mandenle la banda de distorsion y treble para q suene parecida la viola

e|----------------------------------------------|
B|----------------------------------------------|
G|----------------------------------------------|
D|--9/x-----------------------------------------|4 veces
A|--7/x---2----5/4--2----8/7--2----5/4--2----8--|
E|--------0-0--3/2--0-0--6/5--0-0--3/2--0-0--6--|

e|-------------------------------------------------------------|
B|-------------------------------------------------------------|
G|-------------------------------------------------------------|
D|-------------------------------------------------------------|
A|--2------5/4-5--2------8/7-8--2------5/4-5--x-x-3-3-x-x-5-5--|
E|--0-0-0--3/2-3--0-0-0--6/5-6--0-0-0--3/2-3--x-x-1-1-x-x-3-3--|

e|------------------------------------------------------------|
B|------------------------------------------------------------|
G|------------------------------------------------------------|
D|------------------------------------------------------------|
A|--2------5/4-5--2------8/7-8--2------5/4-5--3--3-3-3-3-3-3--|
E|--0-0-0--3/2-3--0-0-0--6/5-6--0-0-0--3/2-3--1--1-1-1-1-1-1--|

e|-------------------------------------------------------------|
B|-------------------------------------------------------------|
G|-------------------------------------------------------------|
D|-------------------------------------------------------------|
A|--2------5/4-5--2------8/7-8--2------5/4-5--x-x-3-3-x-x-5-5--|
E|--0-0-0--3/2-3--0-0-0--6/5-6--0-0-0--3/2-3--x-x-1-1-x-x-3-3--|

e|------------------------------------------------------------------------|
B|------------------------------------------------------------------------|
G|------------------------------------------------------------------------|
D|------------------------------------------------------------------------|
A|-2------5/4-5--2------8/7-8--2------5/4-5--3--3-3-3-5--5-5-5-7--7-7-7-7-|
E|-0-0-0--3/2-3--0-0-0--6/5-6--0-0-0--3/2-3--1--1-1-1-3--3-3-3-5--5-5-5-5-|


e|-----------------------------------------------------|
B|-----------------------------------------------------|
G|-----------------------------------------------------|
D|-----------------------------------------------------|
A|--7-7-7-7--8--5--7-7-7-7--8--5--7-7-7-7--8--5--3--5--|
E|--5-5-5-5--6--3--5-5-5-5--6--3--5-5-5-5--6--3--1--3--|

e|------------------------------------------------------------------------|
B|------------------------------------------------------------------------|
G|------------------------------------------------------------------------|
D|------------------------------------------------------------------------|
A|--7-7-7-7--8--5--7-7-7-7--8--5--7-7-7-7--8--5--3--5--7--7-7-7-7-7-7--7--|
E|--5-5-5-5--6--3--5-5-5-5--6--3--5-5-5-5--6--3--1--3--5--5-5-5-5-5-5--5--|


y ahi empiesa el tema nomas

[email protected]

RICKY NO MURIO!!!





Calificar esta versión:
Aviso: Este fichero es trabajo propio de su transcriptor y representa su interpretación personal de la canción. El material contenido en esta página es para exclusivo uso privado, por lo que se prohibe su reproducción o retransmisión, así como su uso para fines comerciales.
Más versiones de Cancer, Flema
Cancer
acordes
Cancer
tablatura
Cancer
bajo
Descubre más canciones de Flema