Cancer, Flema (bajo)

Autor: Anónimo | 32648 visualizaciones



intro 1
G:---------------------------------------------------------------
D:---------------------------------------------------------------
A:---------------------------------------------------------------
E:-00--00--00--00--00--00--00--00--00--00-00--00-----------------

G:---------------------------------------------------- x7
D:----------------------------------------------------
A:----------------------------------------------------
E:-00-3-2--00-6-5--00-3-2--00-1-----------------------

intro 2

G:-------------------------------------------------------
D:-------------------------------------------------------
A:-------------------------------------------------------
E:--5--5--5--1--3--5--5--5--1--3--5----------------------

verse

G:--------------------------------------------------------
D:--------------------------------------------------------
A:--------------------------------------------------------
E:--5>--6>--3>--5>----------------------------------------
cuando ya se te va la vida

G:------------------------------------------------------
D:------------------------------------------------------
A:------------------------------------------------------
E:---6>--3>-----5>-------6>-----5>----1------3----------
 entras al sanatorio ganas de morirte

se repite el verse con hasta el final

Fuente original: LaCuerda
Colaborador original: Vincent [[email protected]]





Calificar esta versión:
Aviso: Este fichero es trabajo propio de su transcriptor y representa su interpretación personal de la canción. El material contenido en esta página es para exclusivo uso privado, por lo que se prohibe su reproducción o retransmisión, así como su uso para fines comerciales.
Más versiones de Cancer, Flema
Cancer
acordes
Cancer
tablatura
Cancer
bajo
Descubre más canciones de Flema