11 Y 6, Fito Paez (tablatura) (ver 2)

Autor: Anónimo | 31130 visualizaciones



Correccion del piano de introduccion

E--------------------------------------------------19-
B--------------------------------------------19-20----
G-----------------19-17----17-------------------------
D-----------17-19-------21----21-19-17-16-17----------
A--17-19-21-------------------------------------------
e-----------------------------------------------------

E-----------------------------------------------------
B--20-17-------17-------20----------------------------
G--------16-19----19-17----17-16-17-16----------------
D--------------------------------------19-17----17-16-
A--------------------------------------------19-------
e-----------------------------------------------------

E-----------------------------------------------------
B-----------------------------------------------------
G-----------------------------------19-17----17-------
D--17-16-17-16----------------17-19-------21----21-19-
A--------------19-18-17-19-21-------------------------
e-----------------------------------------------------

E-----------------19----------------------------------
B-----------19-20----20-17-------17-------20----------
G--------------------------16-19----19-17----17-16-17-
D--17-16-17-------------------------------------------
A-----------------------------------------------------
e-----------------------------------------------------

E-----------------------------------------------------
B-----------------------------------------------------
G--16-------------------------------------------------
D-----19-17----17-16-17-16-17-16----------------------
A-----------19-------------------19-18-17-------------
e-----------------------------------------------------

Fuente original: LaCuerda
Colaborador original: Javier [kikagoras@hotmail.com]





Calificar esta versión:
Aviso: Este fichero es trabajo propio de su transcriptor y representa su interpretación personal de la canción. El material contenido en esta página es para exclusivo uso privado, por lo que se prohibe su reproducción o retransmisión, así como su uso para fines comerciales.
Más versiones de 11 Y 6, Fito Paez
11 Y 6
acordes
11 Y 6 (ver 2)
acordes
11 Y 6
tablatura
11 Y 6 (ver 2)
tablatura
11 Y 6
teclado
11 Y 6
video teclado
Descubre más canciones de Fito Paez