11 Y 6, Fito Paez (tablatura)

Autor: Anónimo | 29464 visualizaciones



Esta canción es muy bella espero que la disfruten:

INTRO:

-------------10-9---9-10-9-7--------9-10|14|10~9-7~~-9-10-9-7----11-9--------
------7-8-10-----------------10-9-7-----|---|-----------------10--------------
-7-9------------------------------------|---|---------------------------------
----------------------------------------|---|---------------------------------
----------------------------------------|---|---------------------------------
----------------------------------------|---|---------------------------------
                                                                              

-9-10-9-7-------------------------|-|-|---------------------------------------
----------10~~-10-9-10-9-10-9-7---|-|-|---------------------------------------
--------------------------------9-|-|-|---------------------------------------
----------------------------------|-|-|---------------------------------------
----------------------------------|-|-|---------------------------------------
----------------------------------|-|-|---------------------------------------
 Repeat!!!
-------------10-9---9-10-9-7--------9-10|14|10~9-7~~-9-10-9-7----11-9--------
------7-8-10-----------------10-9-7-----|---|-----------------10--------------
-7-9------------------------------------|---|---------------------------------
----------------------------------------|---|---------------------------------
----------------------------------------|---|---------------------------------
----------------------------------------|---|---------------------------------
                                                                              

-9-10-9-7-------------------------|-|-|---------------------------------------
----------10~~-10-9-10-9-10-9-7---|-|-|---------------------------------------
--------------------------------9-|-|-|---------------------------------------
----------------------------------|-|-|---------------------------------------
----------------------------------|-|-|---------------------------------------
----------------------------------|-|-|--------------------------------------- 

La notas después del punteo son estas y se tocan en ritmo balada!!!!!!

-3------------------------3---------------------------------------------------
-0------------------------1---------------------------------------------------
-0------------------------2---------------------------------------------------
-0------------------------0---------------------------------------------------
-2------------------------0---------------------------------------------------
-3------------------------0---------------------------------------------------
                                                                              
PIANO . . . . . . . . . .



Buena suerte!!!!

Bye Bye!!!!

Fuente original: LaCuerda
Colaborador original: Cesar Andres Forero Diaz [aladincafd@tutopia.com]





Calificar esta versión:
Aviso: Este fichero es trabajo propio de su transcriptor y representa su interpretación personal de la canción. El material contenido en esta página es para exclusivo uso privado, por lo que se prohibe su reproducción o retransmisión, así como su uso para fines comerciales.
Más versiones de 11 Y 6, Fito Paez
11 Y 6
acordes
11 Y 6 (ver 2)
acordes
11 Y 6
tablatura
11 Y 6 (ver 2)
tablatura
11 Y 6
teclado
11 Y 6
video teclado
Descubre más canciones de Fito Paez