Golfa, Extremoduro (tablatura) (ver 2)

Autor: Anónimo | 19312 visualizaciones



Golfa de extremoduro por Juan MR PERRACO

Es la primera partitura que hago y me imagino que habrá algunos
errores de notación (sobre todo que no sé como poner los ligados,
y de tempo) pero estoy seguro de que os sabreis buscar la vida y
de que os será de ayuda. Los arpegios son bastante peculiares,
pero estoy bastante seguro de que va por ahí la cosa. Un saludo
a todos los admiradores de Extremoduro y dadle caña...!!

INTRO:

DO         SOL          RE         DO
|-----------|-----------|----------|----------|
|-5---5-5-5-|-----------|----------|----------|
|-----------|7---5---454|----------|----------|
|-----------|-----------|7---5--4--|5---------|
|-----------|-----------|----------|--7-------|
|-----------|-----------|----------|----------|

DO         SOL          RE         DO
|-----------|-----------|----------|----------|
|-----5-5-5-|-----------|----------|----------|
|-----------|7---5---454|----------|----------|
|-----------|-----------|7---5--4--|5---------|
|-----------|-----------|----------|----------|
|-----------|-----------|----------|----------|

DO         SOL          RE         DO
|-----------|-----------|----------|----------|
|-----5-5-5-|-----------|----------|----------|
|-----------|7---5---454|----------|----------|
|-----------|-----------|7---5--4--|5---------|
|-----------|-----------|----------|--7-------|
|-----------|-----------|----------|----------|

 DO          SOL         RE          DO
e|-----------|-----------|-----------|----------|
B|-----------|-----------|-----------|----------|
G|-----0--2--|-----2-4---|---2---0---|----------|   (x2)
D|--2--------|-----------|-----------|--5---2---|
A|-----------|-----------|-----------|----------|
E|-----------|-----------|-----------|----------|

mientras tanto, la 2ª guitarra acompaña durante la intro así:

 DO          DO         SOL          RE
e|-----------|-----------|-----------|----------|
B|-----------|-----------|-----------|----------|
G|-----------|-----------|-----------|----------|
D|------10---|-----------|------9----|------0---|
A|----0---0--|-----------|----10--10-|----9---0-|
E|--8--------|-----------|--0--------|--10------|



ARPEGIO ESTROFA: (se repite durante casi toda la canción,
tapando bien las cuerdas con la mano derecha)

 DO          DO         SOL          RE
e|-----------|-----------|-----------|----------|
B|-----------|-----------|-----------|----------|
G|-----------|-----------|-----------|----------|
D|------10---|------10---|------9----|------0---|
A|----0---0--|----0---0--|----10--10-|----9---0-|
E|--8--------|--8--------|--0--------|--10------|

VIOLÍN:

 DO          DO         SOL          RE
e|-----------|-----------|-----------|----------|
B|-8---------|-10--------|-8---------|----------|
G|------7----|------7----|-----------|-9--------|
D|-----------|-----------|------9----|-----7----|
A|-----------|-----------|-----------|----------|
E|-----------|-----------|-----------|----------|

RIFF DE UOJO (en la parte que dice "por que no sale sola...")

 DO          DO         SOL          RE
e|-----------|-----------|-----------|----------|
B|-----------|-----------|-----------|----------|
G|-----------|-----------|-----------|----------|
D|-----------|-----------|-----------|----------|
A|-----------|-----------|----2--3--3|5---------|
E|-----------|-----------|-3---------|----------|

luego lo cambia por este

 DO          DO         SOL          RE
e|-----------|-----------|-----------|----------|
B|-----------|-----------|-----------|----------|
G|-----------|-----------|-----------|----------|
D|-----------|-----------|-5---7---5-|-4--------|
A|-----------|-----------|-----------|----------|
E|-----------|-----------|-----------|----------|


RIFF DE UOJO (en la parte que dice "porque no le da la gana...")

 DO          DO         SOL          RE
e|-----------|-----------|-----------|----------|
B|-----------|-----------|-8---------|-7--------|
G|-----------|-----------|-7---------|-7--------|
D|-----------|-----------|-9---------|-7--------|
A|-----------|-----------|-----------|----------|
E|-----------|-----------|-----------|----------|



RIFF DE UOJO (en la parte de "seguir la trayectoria que
llevan las nubes ...")

 DO          DO         SOL          RE
e|-----------|-----------|-----------|----------|
B|-----------|-----------|-----------|----------|
G|-5---------|-----5-4-5-|-----------|-7--------|
D|-5---------|-----5-5-5-|-5---------|-7--------|
A|-3---------|-----------|-5---------|-5--------|
E|-----------|-----------|-3---------|----------|


El resto de la canción sigue la línea de los acordes del
arpegio (DO DO SOL RE).





Tan tan
Llaman a la puerta otra vez, ya va, ¿quién es?
Fue abrir
y se metió en mi casa: un amanecer
¡ahí va! ¡que bien!

Sola...
soñar que estaba sola y pensé:
¡joder! ¡que bien!

Nada
me para cuando empiezo a crecer
¡ahí voy, coger!

¿Y por qué no sale sola?
porque no le da la gana,    [BIS]
dice que si no se droga,
dice que no siente nada

Si hace sol, se tira de la cama
y por el ascensor, las nubes se levantan
y ahí voy yo, a romper las telarañas de tu corazón,
verás como se escampa, ¡golfa!

Su piel...
¡que me corro si me roza su piel!

¿Fumas?
pero solo no me sienta muy bien
¡toma, alíñale!

Jurad
jurad que estaba triste y diré:
fué ayer, ¡joder que bien!

Nada
me para cuando empiezo a crecer
¡ahí voy, coger!

Seguir la trayectoria que llevan las nubes y volver por la mañana
igual que sale el sol, verás que calentito retorcer las horas dando
patadas al reloj.

    Tú ...y yo estoy medio loco también y sin otra cosa que hacer,
como un montón de palabras cogiditas de un papel.





Calificar esta versión:
Aviso: Este fichero es trabajo propio de su transcriptor y representa su interpretación personal de la canción. El material contenido en esta página es para exclusivo uso privado, por lo que se prohibe su reproducción o retransmisión, así como su uso para fines comerciales.
Más versiones de Golfa, Extremoduro
Golfa
tablatura
Golfa (ver 2)
tablatura
Descubre más canciones de Extremoduro