Golfa, Extremoduro (tablatura)

Autor: Anónimo | 33788 visualizaciones



+ Tabulados de made in spain!                   +
+ [http://mades.kaos.es]                        +
+++++++++++++++++++++++++++++++++++++++++++++++++

La canción es siempre igual y solo tiene tres acordes; así que supongo 
que no tendréis ningún problema a la hora de tocarla. Tampoco he puesto
los acordes a todas las letras, pero ya os digo; es siempre lo mismo.
El punteo del principio tampoco es muy difícil (lo que es difícil es 
tocarlo igual de bien que Iñaki) así que lo adjunto para que probéis.


INTRO:

 DO          DO         SOL          RE         DO
e|-----------|-----------|-----------|----------|----------|
B|---5--5----|---5---5---|--3--1--0--|----------|----------|
G|-----------|-----------|-----------|-2--0-----|----------|   (x3)
D|-----------|-----------|-----------|-------4--|--5-2-----|
A|-----------|-----------|-----------|----------|----------|
E|-----------|-----------|-----------|----------|----------|

 DO          SOL         RE          DO        
e|-----------|-----------|-----------|----------|
B|-----------|-----------|-----------|----------|
G|-----0--2--|---4---4---|---2-------|----------|   (x2)
D|--2--------|-----------|-------4---|--5---2---|
A|-----------|-----------|-----------|----------|
E|-----------|-----------|-----------|----------|

ARPEGIO 1ª ESTROFA:

 DO          DO         SOL          RE         
e|-----------|-----------|-----------|----------|
B|------1----|------1----|------0----|------3---|
G|----0---0--|----0---0--|----0---0--|----2---2-| 
D|--2--------|--2--------|--0--------|--0-------|
A|-----------|-----------|-----------|----------|
E|-----------|-----------|-----------|----------|

ACORDES:

DO
Tan tan 
SOL           RE             DO               SOL  RE
Llaman a la puerta otra vez, ya va, ¿quién es? 
DO
Fue abrir
      SOL              RE    DO
y se metió en mi casa: un amanecer
            SOL   RE 
¡ahí va! ¡que bien! 

Sola... 
soñar que estaba sola y pensé: 
¡joder! ¡que bien! 

Nada 
me para cuando empiezo a crecer 
¡ahí voy, coger!

             DO        SOL
¿Y por qué no sale sola? 
RE           DO              SOL
porque no le da la gana,             [BIS]
RE          DO            SOL
dice que si no se droga, 
RE          DO            SOL   RE
dice que no siente nada 


DO            SOL        RE
Si hace sol, se tira de la cama
        DO           SOL         RE 
y por el ascensor, las nubes se levantan 
y ahí voy yo, a romper las telarañas de tu corazón, 
verás como se escampa, ¡golfa! 

Su piel... 
¡que me corro si me roza su piel! 

¿Fumas? 
pero solo no me sienta muy bien 
¡toma, alíñale! 

Jurad 
jurad que estaba triste y diré: 
fué ayer, ¡joder que bien! 

Nada 
me para cuando empiezo a crecer 
¡ahí voy, coger! 

Seguir la trayectoria que llevan las nubes y volver por la mañana 
igual que sale el sol, verás que calentito retorcer las horas dando 
patadas al reloj. 

    Tú ...y yo estoy medio loco también y sin otra cosa que hacer, 
como un montón de palabras cogiditas de un papel. 

NOTAS:

DO (x32010)
SOL(320003)
RE (xx0232)





Calificar esta versión:
Aviso: Este fichero es trabajo propio de su transcriptor y representa su interpretación personal de la canción. El material contenido en esta página es para exclusivo uso privado, por lo que se prohibe su reproducción o retransmisión, así como su uso para fines comerciales.
Más versiones de Golfa, Extremoduro
Golfa
tablatura
Golfa (ver 2)
tablatura
Descubre más canciones de Extremoduro