Cuando Mueres Por Alguien, Erick Rubin (tablatura) (ver 2)

Autor: Anónimo | 27935 visualizaciones



esta kncion es para mi mjor amiga es para carmina virjen o.
ojala y t guste
E----4---------------2------
B----5------2----4-----4----
G----6------2----4-------4--   (X4)
D--6--------2----4----------
A---------0-----------------
E---------------------------


E----4---------------2------
B----5------2----4-----4----
G----6------2----4-------4--
D--6--------2----4----------
A---------0-----------------
E---------------------------
 Amanecí en tu cama

E----4---------------2------
B----5------2----4-----4----
G----6------2----4-------4--
D--6--------2----4----------
A---------0-----------------
E---------------------------
 Te vi sonreír

E----4---------------2------
B----5------2----4-----4----
G----6------2----4-------4--
D--6--------2----4----------
A---------0-----------------
E---------------------------
 Algo que pensabas

E----4---------------2------
B----5------2----4-----4----
G----6------2----4-------4--   (X4)
D--6--------2----4----------
A---------0-----------------
E---------------------------
 No me podías decir

E-------0-------
B-----2---2-----
G---2-------2---
D-2-----------2-
A---------------
E---------------
 Hace mucho tiempo no

E-------0-------
B-----0---0-----
G---1-------1---
D-2-----------2-
A---------------
E---------------
 Siento tus besos

E-------4-------
B-----5---5-----
G---6-------6---
D-6-----------6-
A---------------
E---------------
 Te estás apartando de

E-------0-------
B-----2---2-----
G---2-------2---
D-2-----------2-
A---------------
E---------------
 Mí

E-------0-------
B-----2---2-----
G---2-------2---
D-2-----------2-
A---------------
E---------------
 El fuego se extingue y

E-------2-------
B-----4---4-----
G---4-------4---
D-4-----------4-
A---------------
E---------------
 Sin ti no no puedo vi-

E---------------
B--0--2-2-2--0--
G--1--2-2-2--1--
D--2--2-2-2--2--
A---------------
E---------------
 Vir

          A-B         E
Cuando mueres por alguien
      A         B     E
Y su pecho deja de latir
         A       B      E
No se olvida por un instante
       A                  B
Los momentos que pasaron juntos, así

SE REPITEN TODOS LOS ARPEGIOS Y ACORDES CON ESTA LETRA

Te regalé una rosa
Y la dejaste morir
Hay tantas cosas
Que contigo quisiera vivir

Veo como el río pasa
Y va rumbo hacia el  mar
No puedes sentir y
Tú no me puedes amar

Cuando mueres…

No hay nada que pueda
Hacer o decir
Que te haga regresar a mí
Me falta tu alma y sin ti no puedo vivir

Cuando mueres…





Calificar esta versión:
Aviso: Este fichero es trabajo propio de su transcriptor y representa su interpretación personal de la canción. El material contenido en esta página es para exclusivo uso privado, por lo que se prohibe su reproducción o retransmisión, así como su uso para fines comerciales.
Más versiones de Cuando Mueres Por Alguien, Erick Rubin
Cuando Mueres Por Alguien
acordes
Cuando Mueres Por Alguien (ver 2)
acordes
Cuando Mueres Por Alguien
tablatura
Cuando Mueres Por Alguien (ver 2)
tablatura
Descubre más canciones de Erick Rubin