Cuando Mueres Por Alguien, Erick Rubin (tablatura)

Autor: Anónimo | 37869 visualizaciones



Intro:

     C#m  A  B               Bm A  F#          Bm   A    F#                   Bm A  F#

e--8h9~~--------11h12~-9p8-8h9~-----------------------------------------------4--0--2~---|
B-------------------------------9~-7~~---2-5-5s7~-----------------------------5--2--2~---|
G-------------------------------------------------4h6~------------------------6--2--3~---|
D------------------------------------------------------4h6-4-2h4-4h6-4p2h4~~--6--2--4~---|
A-----------------------------------------------------------------------------4--0--4~---|
E-----------------------------------------------------------------------------x--x--2~---|


Verso 1:

C#m     A        B
  Amanecí en tu cama,
C#       A   B
  te vi sonreir.
C#m      A     B
  Algo que pensabas,
C#m        A      B
  no me podías decir,


Puente 1:

   A                    E
  Hace mucho tiempo no siento tus besos,
        C#m              A
  te estas apartando de mí. 
       A
  El fuego se extingue, 
       B             E    
  sin ti no puedo vivir.


Coro:

           A B      E
  Cuando mueres por alguien 
        A          B    E
  y su pecho deja de latir,
           A       B      C#m
  no se olvida por un instante
         A                  B        Solo 1
  los momentos que pasaron juntos, así...


Solo 1:

     Bm A  B             Bm A  F#

e-------------------------------------------|
B--7h9~-7~-----5-7-7~--2h4~-2~--------------|
G-------------------------------------------|
D------------------------------4~--4h6-6~---|
A-------------------------------------------|
E-------------------------------------------|


Verso 2: Igual al Verso 1 

Te regalé una rosa, 
y la dejaste morir.
Hay tantas cosas,
                          Riff 1
que contigo quisiera vivir.


Riff 1:

e------------------|
B--7h9~-7-7p5-5~---|
G------------------|
D------------------|
A------------------|
E------------------|


Puente 2: Igual al Puente 1

Veo como el río pasa
rumbo hacia el mar.
No puedes huir 
y tú no me queres amar.


Coro 2: Igual que el Coro 1

           A B      E
  Cuando mueres por alguien 
        A          B    E
  y su pecho deja de latir,
           A       B      C#m
  no se olvida por un instante
         A                  B        Solo 2
  los momentos que pasaron juntos, así...


Solo 2:



e--------------------------------7-8-9~-9~-9-11-12~--11-9-7---------------------------------|
B--2-5-7h9~~---5-7-2~~-------7-9----------------------------7-7h9~-9~-5-7-7h9-5h7-5-2h5-2~--|
G------------------------6-9----------------------------------------------------------------|
D-------------------------------------------------------------------------------------------|
A-------------------------------------------------------------------------------------------|
E-------------------------------------------------------------------------------------------|


Puente 3: Igual al puente 1

                                    Riff 2
No hay nada que pueda hacer o decir
que te haga regresar a mí.
Tu alma me falta,
si tí no puedo vivir.


Riff 2:

e--9h12-11~-9p7-9~--|
B-------------------|
G-------------------|
D-------------------|
A-------------------|
E-------------------|


Coro 3:

           A B      E
  Cuando mueres por alguien 
        A          B    E
  y su pecho deja de latir,
           A       B      C#m
  no se olvida por un instante
         A                          
  los momentos que pasaron juntos...
         A                  B B B
  los momentos que pasaron juntos, así...


Coro 1 (2)





Calificar esta versión:
Aviso: Este fichero es trabajo propio de su transcriptor y representa su interpretación personal de la canción. El material contenido en esta página es para exclusivo uso privado, por lo que se prohibe su reproducción o retransmisión, así como su uso para fines comerciales.
Más versiones de Cuando Mueres Por Alguien, Erick Rubin
Cuando Mueres Por Alguien
acordes
Cuando Mueres Por Alguien (ver 2)
acordes
Cuando Mueres Por Alguien
tablatura
Cuando Mueres Por Alguien (ver 2)
tablatura
Descubre más canciones de Erick Rubin