Popotitos, Enrique Guzmán (tablatura)

Autor: Anónimo | 25086 visualizaciones



este es el intro de la rola se toca no solo en el intro 1 sino
tambien hasta ke yo les ponga otro aviso mientras tanto lo tokan
asi...

e|-----------------------------|----------------------------
B|-----------------------------|----------------------------
G|-----------------------------|----------------------------
D|---------------2-2-0-0-------|---------------2-2-0-0------
A|---------2-2-4---------2-2-4-|---------2-2-4---------2-2-4
E|-0-0-2-4---------------------|-0-0-2-4--------------------

A
Mi amor entero es de mi novia popotitos
sus piernas son como un par de carricitos

e|----------------------------
B|----------------------------   (aqui seguimos con esta parte a
G|---------------2-2-0-0------    la cual le llamaremos intro 2)
D|---------2-2-4---------2-2-4
A|-0-0-2-4--------------------
E|----------------------------

D
y cuando a las fiestas la llevo a bailar
(se regresa al intro)
A
sus piernas flacas se parecen quebrar
-----------------------------------------------------
(coro)'aqui no hay requinto o bajeo como le llamen'
-----------------------------------------------------
E           D
popotitos no es un primor
E             D
pero baila que da apagon

(aqui regresa el requinto del intro 1)
A
a mi popotitos  yo le doy mi amor
-----------------------------------------------
A
popotitos baila rock and roll
y no la vez ni con la luz del sol

(intro 2)
D
es tan delgada que me hace pensar 

(intro 1)
A
que en plena lluvia no se va a mojar

--------------------------------------------------------------
(coro)(recuerda que no lleva requinto hasta al final del coro)
--------------------------------------------------------------

A
cuando hay aire fuerte la parece volar
a miss universo nunca va a llegar

(intro 2)
D
con popotitos me voy a casar 
A
y de hay en adelante la voy a alimentar

(coro)

al final solo se toca puro requinto para terminar


esta facil solo que no me supe explicar muy bien bueno como sea
espero que les guste y se la dedico a mi novia gaby que la amo
y a mi hermana la popotitos ;) y a mi cuñada caro :D





Calificar esta versión:
Aviso: Este fichero es trabajo propio de su transcriptor y representa su interpretación personal de la canción. El material contenido en esta página es para exclusivo uso privado, por lo que se prohibe su reproducción o retransmisión, así como su uso para fines comerciales.
Más versiones de Popotitos, Enrique Guzmán
Popotitos
acordes
Popotitos
tablatura
Descubre más canciones de Enrique Guzmán