Popotitos, Enrique Guzmán (acordes)

Autor: Anónimo | 28854 visualizaciones

alamisi7


   ESTO ES CUANDO ESTOY EN MI M
6A.----0---0---3-----4-----------------------------------------------
5A.----------------------2----4--------------4--2--2----4---2------0-
4A.-------------------------------2---2---0--------------------------
3A.------------------------------------------------------------------
2A.------------------------------------------------------------------
1A.------------------------------------------------------------------

ESTO ES CUANDO ESTOY EN LA M

6A.------------------------------------------------------------------
5A.---0--0--3--4------------------------------------4----2----0------
4A.-----------------2---4---------------4---2---2--------------------
3A.------------------------2---2---0---------------------------------
2A.------------------------------------------------------------------
1A.------------------------------------------------------------------

AL TERMINAR CADA PARRAFO DONDE ESTAN LA 'E' DE [MI] 

O  'A' DE [LA] ES CUANDO SE TOCA ESTO  


EL EMPIEZO ANTES DE TODO ESTO ES:

ESTOS VAN SEGUIDOS y luego sigue lo de arriba

6A.---2--2--2--2--2--2--2--2---------------  
5A.---------------------------0--0--0--0--0--0--0--0-

    Mi                                 
MI AMOR ENTERO ES DE MI NOVIA POPOTITOS    E
 
      Mi
SUS PIERNAS SON COMO UN PAR DE CARRISITOS  E

La  
Y CUANDO A La FIESTA LA LLEVO A BAILAR     A

     Mi  
SUS PIERNAS FLACAS LE PARECEN QUEBRAN.     E


Si7 [A]         La  [A]
POPOTITOS NO ES UN PRIMOR

Si7 [A]        La  [A]
PERO BAILA QUE DA FAVOR

     Mi  
A MI POPOTITOS YO LE DI MI AMOR.    E


Mi
POPOTITOS BAILA ROCK AND ROLL   E

  Mi
Y NO LA VEZ NI CON LA LUZ DEL SOL   E

La 
ES TAN DELGADA QUE ME HACE PENSAR   A

        Mi                 
QUE EN PLENA LLUVIA NO SE VA A MOJAR.  E


Si7 [A]         La  [A]
POPOTITOS NO ES UN PRIMOR

Si7 [A]        La  [A]
PERO BAILA QUE DA FAVOR

     Mi
A MI POPOTITOS YO LE DI MI AMOR.     E


       Mi
CUANDO HAY AIRE FUERTE LE PARECE VOLAR   E

   Mi 
A MISS, UNIVERSO NUNCA VA A LLEGAR     E

La 
CON POPOTITOS ME VOY A CASAR        E

         Mi
Y DE AHI EN ADELANTE LA VOY ALIMENTAR.   E



Si7 [A]         La  [A]
POPOTITOS NO ES UN PRIMOR 

Si7 [A]        La  [A]
PERO BAILA QUE DA FAVOR

     Mi
A MI POPOTITOS YO LE DI MI AMOR.    E




algun malentendido o algun comentario no duden en mandarmelo

okas??? aqui les dejo mi mail por si alguien quiere otra rola



saludos a los caramiadas de loma linda y a la secu 47





Calificar esta versión:
Aviso: Este fichero es trabajo propio de su transcriptor y representa su interpretación personal de la canción. El material contenido en esta página es para exclusivo uso privado, por lo que se prohibe su reproducción o retransmisión, así como su uso para fines comerciales.
Más versiones de Popotitos, Enrique Guzmán
Popotitos
acordes
Popotitos
tablatura
Descubre más canciones de Enrique Guzmán