...y Al Final, Enrique Bunbury (tablatura) (ver 2)

Autor: Anónimo | 33787 visualizaciones



Bueno esta es una transcripcion de el intro de la 
canción.
Esta transladada de teclado a guitarra.Disfrutenla.

e------------|-------------------------------------
b-5--7--7~9--|-5--7--7~9-9-11-12-11-9-12-9---------
g------------|-------------------------------------
d------------|-------------------------------------
a------------|-------------------------------------
E------------|-------------------------------------

e--------------------------------------------------
b-4-4-7-5-5-4---4-4-7-5-4--------------------------
g--------------------------------------------------
d--------------------------------------------------
a--------------------------------------------------
E--------------------------------------------------

e------------|-------------------------------------
b-5--7--7~9--|-5--7--7~9-9-11-12-11-9-12-9---------
g------------|-------------------------------------
d------------|-------------------------------------
a------------|-------------------------------------
E------------|-------------------------------------


e----------------------|---------------------------
b-9-9--9-9-9--12-12-11-|-11-14-11-12-9-------------
g----------------------|---------------------------
d----------------------|---------------------------
a----------------------|---------------------------
E----------------------|---------------------------

Esta es mi primera transcripción, si no les gusta 
pueden escribirme.Saludos para el Luis (Sephiroth ambulante) hotdog


Que Viva El Buen Rock

Fuente original: LaCuerda
Colaborador original: David Alberto Muñoz [DARK_LORD_DARTH_VADER@hotmail.com]





Calificar esta versión:
Aviso: Este fichero es trabajo propio de su transcriptor y representa su interpretación personal de la canción. El material contenido en esta página es para exclusivo uso privado, por lo que se prohibe su reproducción o retransmisión, así como su uso para fines comerciales.
Más versiones de ...y Al Final, Enrique Bunbury
...y Al Final
acordes
...y Al Final (ver 2)
acordes
...y Al Final
tablatura
...y Al Final (ver 2)
tablatura
...y Al Final (ver 3)
tablatura
...y Al Final
teclado
Descubre más canciones de Enrique Bunbury