...y Al Final, Enrique Bunbury (tablatura)

Autor: Anónimo | 40980 visualizaciones



Se lo dedico a todos los de ciudad jardin y al negro plasma.



1-----------4--------4-4-77-6-4-7-4------|--------------------------------------|
2-----4--7----4---7----------------------|--4-4-7-5-5--4---4--4-7--5--5----|
3----------------------------------------|--------------------------------------|
4----------------------------------------|--------------------------------------|
5----------------------------------------|--------------------------------------|
6----------------------------------------|--------------------------------------|

1-----------4--------4-4-77-6-4-7-4------|--------------------------------------|-------------------|
2-----4--7----4---7----------------------|--4-4-7-5-5--4---4--4-7--5--5----|-------------------|
3----------------------------------------|--------------------------------------|-------------------|
4----------------------------------------|--------------------------------------|-----4~6-4-------|
5----------------------------------------|--------------------------------------|-------------2----|
6----------------------------------------|--------------------------------------|---------------4--|

Sol#m          Do#m         Sol#m
Permite que te invite a la despedida
Mi                                  Si
No importa que no merezca mas tu atencion
      Re#                    Sol#m
Asi se hacen las cosas en mi familia
Mi              Re#       Si       Sol#m
Asi me enseýaron a que las quisiera yo

Sol#m          Do#m         Sol#m
Permite que te dedique la ultima linea
Mi                                  Si
No importa que te disguste esta cancion
      Re#                    Sol#m
Asi mi conciencia quedara mas tranquila
Mi              Re#       Si       Sol#m
Asi en esta banda decimos adios

          Mi
... Y al final
                     Sol#m
te atare con todas mis fuerzas
                      Re#               Sol#m
Mis brazos seran cuerdas para bailar este vals

          Mi
... Y al final
                        Sol#m
quiero verte de nuevo contenta
                      Re#           Sol#m
Sigue dando vueltas si aguantas de pie

Sol#m          Do#m         Sol#m
Permite que te explique que no tengo prisa
Mi                                  Si
No importa que tengas algo mejor que hacer
       Re#                    Sol#m
Asi nos podemos pegar toda la vida
Mi            Re#       Si       Sol#m
Asi si me dejas no te dejare de querer

Mi
... Y al final
                     Sol#m
te atare con todas mis fuerzas
                      Re#               Sol#m
Mis brazos seran cuerdas para bailar este vals

          Mi
... Y al final
                        Sol#m
quiero verte de nuevo contenta
                      Re#           Sol#m
Sigue dando vueltas si aguantas de pie

Fuente original: LaCuerda
Colaborador original: Guillermo Williams [[email protected]]





Calificar esta versión:
Aviso: Este fichero es trabajo propio de su transcriptor y representa su interpretación personal de la canción. El material contenido en esta página es para exclusivo uso privado, por lo que se prohibe su reproducción o retransmisión, así como su uso para fines comerciales.
Más versiones de ...y Al Final, Enrique Bunbury
...y Al Final
acordes
...y Al Final (ver 2)
acordes
...y Al Final
tablatura
...y Al Final (ver 2)
tablatura
...y Al Final (ver 3)
tablatura
...y Al Final
teclado
Descubre más canciones de Enrique Bunbury