Alicia (expulsada Al Pais De Las Maravillas), Enrique Bunbury (bateria)

Autor: Anónimo | 16062 visualizaciones



Alicia - Enrique Bunbury                                     


                                                         
C||--76----62----76----62----|--76----62----76----62----|
C||--------------------------|--------------------------|
C||--------------------------|--------------------------|
C||--------------------------|--------------------------|
C||--------------------------|--------------------------|
C||--------------------------|--------------------------|


                                                      
--76----62----76----62----|--76----62----76----62----|
--------------------------|--------------------------|
--------------------------|--------------------------|
--------------------------|--------------------------|
--------------------------|--------------------------|
--------------------------|--------------------------|


                                                      
--76----62----76----62----|--76----62----76----62----|
--------------------------|--------------------------|
--------------------------|--------------------------|
--------------------------|--------------------------|
--------------------------|--------------------------|
--------------------------|--------------------------|


                                                      
--76----62----76----62----|--76----62----76----62----|
--------------------------|--------------------------|
--------------------------|--------------------------|
--------------------------|--------------------------|
--------------------------|--------------------------|
--------------------------|--------------------------|


                                                      
--76----62----76----62----|--76----62----76----62----|
--------------------------|--------------------------|
--------------------------|--------------------------|
--------------------------|--------------------------|
--------------------------|--------------------------|
--------------------------|--------------------------|


                                                            
--76----62----76----62----|--51----57--51--51--51--51--51--|
--------------------------|--36----38--36--36--36--38--36--|
--------------------------|--------------------------------|
--------------------------|--------------------------------|
--------------------------|--------------------------------|
--------------------------|--------------------------------|


                                                                  
--51----57--51--51--51--51--51--|--51----57--51--51--51--51--51--|
--36----38--36--36--36--38--36--|--36----38--36--36--36--38--36--|
--------------------------------|--------------------------------|
--------------------------------|--------------------------------|
--------------------------------|--------------------------------|
--------------------------------|--------------------------------|


                                                                      
--51----57--51--51--51--51--51-51-|--51--51--57--51--51--51--51--51--|
--36----38--36--36--36--38--38-38-|--36--36--38--36--36--36--38--36--|
----------------------------------|----------------------------------|
----------------------------------|----------------------------------|
----------------------------------|----------------------------------|
----------------------------------|----------------------------------|


                                                                  
--51----57--51--51--51--51--51--|--51----57--51--51--51--51--51--|
--36----38--36--36--36--38--36--|--36----38--36--36--36--38--36--|
--------------------------------|--------------------------------|
--------------------------------|--------------------------------|
--------------------------------|--------------------------------|
--------------------------------|--------------------------------|


                                                                  
--51----57--51--51--51--51--51--|--51----57--51--51--51--51--51--|
--36----38--36--36--36--38--36--|--36----38--36--36--36--38--36--|
--------------------------------|--------------------------------|
--------------------------------|--------------------------------|
--------------------------------|--------------------------------|
--------------------------------|--------------------------------|


                                                                  
--51----57--51--51--51--51--51--|--51----57--51--51--51--51--51--|
--36----38--36--36--36--38--36--|--36----38--36--36--36--38--36--|
--------------------------------|--------------------------------|
--------------------------------|--------------------------------|
--------------------------------|--------------------------------|
--------------------------------|--------------------------------|


                                                                  
--51----57--51--51--51--51--51--|--51----57--51--51--51--51--51--|
--36----38--36--36--36--38--36--|--36----38--36--36--36--38--36--|
--------------------------------|--------------------------------|
--------------------------------|--------------------------------|
--------------------------------|--------------------------------|
--------------------------------|--------------------------------|


                                                                  
--51----57--51--51--51--51--51--|--51----57--51--51--51--51--51--|
--36----38--36--36--36--38--36--|--36----38--36--36--36--38--36--|
--------------------------------|--------------------------------|
--------------------------------|--------------------------------|
--------------------------------|--------------------------------|
--------------------------------|--------------------------------|


                                                                           
--51----57--51--51--51--51--51--|------|------|------|------|------|------|
--36----38--36--36--36--38--36--|------|------|------|------|------|------|
--------------------------------|------|------|------|------|------|------|
--------------------------------|------|------|------|------|------|------|
--------------------------------|------|------|------|------|------|------|
--------------------------------|------|------|------|------|------|------|


                                                                             
------|------|------|------|------|------|------|------|------|------|------|
------|------|------|------|------|------|------|------|------|------|------|
------|------|------|------|------|------|------|------|------|------|------|
------|------|------|------|------|------|------|------|------|------|------|
------|------|------|------|------|------|------|------|------|------|------|
------|------|------|------|------|------|------|------|------|------|------|


                                                                             
------|------|------|------|------|------|------|------|------|------|------|
------|------|------|------|------|------|------|------|------|------|------|
------|------|------|------|------|------|------|------|------|------|------|
------|------|------|------|------|------|------|------|------|------|------|
------|------|------|------|------|------|------|------|------|------|------|
------|------|------|------|------|------|------|------|------|------|------|


                                    
------|------|------|------|------||
------|------|------|------|------||
------|------|------|------|------||
------|------|------|------|------||
------|------|------|------|------||
------|------|------|------|------||

Fuente original: LaCuerda
Colaborador original: c|-|risti/- [acorde_49@hotmail.com]





Calificar esta versión:
Aviso: Este fichero es trabajo propio de su transcriptor y representa su interpretación personal de la canción. El material contenido en esta página es para exclusivo uso privado, por lo que se prohibe su reproducción o retransmisión, así como su uso para fines comerciales.