Alicia (expulsada Al Pais De Las Maravillas), Enrique Bunbury (bajo)

Autor: Anónimo | 35328 visualizaciones



AL PRINCIPIO DE LA ROLA SOLO SE ESCUCHA LA GUITARRA
SOLAMENTE

AQUÍ ENTRA EL BAJO

ALICIA ES SIEMPRE TAN BREVE QUE YA HA TERMINADO
   F                                       Am
G-----------------------------------------------
D-----------------------------------------------
A-----------------------------------------------
E--1---------------------------------------5----

ALICIA DICE QUE TE QUIERE CUANDO YA TE HA ABANDONADO
   F                                        Am
G-----------------------------------------------
D-----------------------------------------------
A-----------------------------------------------
E--1----------------------------------------5---


  ALICIA ESPULSADA AL PAÍS DE LAS MARAVILLAS
  D                                F#m
G------------------------------------------------
D------------------------------------------------
A-5------5------------5-------5------------------
E----------------------------------2--2-----2--2-

   PARA ALICIA HOY ES SIEMPRE TODAVÍA
                Bm                  Em
G-------------------------------------------------
D-----------------------------------2-2--2-2-2----
A---------------2-2--2-2-2-2-2--------------------
E---2-2----2--------------------------------------


DURANTE EL SOLO:
     C       Em     Am       G               X2
G-------------------------------------------
D----------2-2-2----------------------------
A--3-3-3------------------------------------
E------------------5-5-5---3-3-3------------



SE TOCA DOS VECES LO ANTERIOR EN EL SOLO
AHI SE DETIENE OTRA VEZ HASTA LA PARTE DE:
ALICIA ES SIEMPRE TAN BREVE.....
SE TOCA IGUAL
DESPUES SE REPITE ESTO


ALICIA EXPULSADA AL PAÍS DE LAS MARAVILLAS
   D                              F#m
G--------------------------------------------
D--------------------------------------------
A--5--5---5--5-----5-------------------------
E---------------------------------2-2-2-2-2--


ALICIA EXPULSADA AL PAIS DE LAS MARAVILLAS
   D                              F#M
G--------------------------------------------
D--------------------------------------------
A--5--5---5---5-----5------------------------
E---------------------------------2--2--2-2-2

TERMINA CON ESTO
   Bm       Em          Em
G------------------------------------------------
D----------2-2-2-2-2---2--2--2--2--2--2--2-------
A--2-2-2-2---------------------------------------
E--------------------0--0--0--0--0--0--0--0------


SI TIENEN DUDAS ESCRÍBANME A MI CORREO

Fuente original: LaCuerda
Colaborador original: sergio hernández gómez [orsond@atame.com]





Calificar esta versión:
Aviso: Este fichero es trabajo propio de su transcriptor y representa su interpretación personal de la canción. El material contenido en esta página es para exclusivo uso privado, por lo que se prohibe su reproducción o retransmisión, así como su uso para fines comerciales.