Algo En Comun, Enrique Bunbury (tablatura) (ver 2)

Autor: Anónimo | 15524 visualizaciones



esta es una buena cancion, el solo lo saque hase tiempo pero queria
mandar la cancion completa
la guitarra se escucha asi

en el primer verso va asi
------|------|------|------|
------|------|------|------|
---1-2|---1-2|---1-2|---1-2|
------|------|------|------|dos veses
(0)---|------|------|------|
------|(3)---|(2)---|(3)---|

()=esto lo ase el bajo no la guitarra.
todo esto se escucha solo dos veses al principio y no se vuelve a escuchar

el verso continua de la siguiente manera
----0|-----|-----|-----|
-----|----3|----1|----3|
---2-|---2-|---2-|---2-|
-----|-----|-----|-----|
(0)--|-----|-----|-----|
-----|(3)--|(2)--|(3)--|
todo esto se repite hasta que entra el coro

el coro va asi
F      G#   A#   C
1-1---|4---|8---|----6--|
1--1-3|-4-6|-8-9|-8---8-|
2-----|----|----|7-7---7|
3-----|----|----|-------|esto dos veses
3-----|----|----|-------|
------|----|----|-------|
como...algo.comun
NOTA:como no tengo la guitarra ala mano no me acuerdo si es primero A# que C
o al reves

luego entra el verso asi
----0|-----|-----|-----|
-----|----3|----1|----3|
---2-|---2-|---2-|---2-|
-----|-----|-----|-----|
(0)--|-----|-----|-----|
-----|(3)--|(2)--|(3)--|
todo esto se repite hasta que entra el coro de la misma manera
F      G#   A#   C
1-1---|4---|8---|----6--|
1--1-3|-4-6|-8-9|-8---8-|
2-----|----|----|7-7---7|
3-----|----|----|-------|esto dos veses
3-----|----|----|-------|
------|----|----|-------|
como...algo.comun

luego entra el solo
el solo que mandaron esta bien pero le falta algunas cosas(no es copia del otro)

----------------------------------------------------------------
----------------------------------------------------------------
-------------------------------------7/9-12-14-14/15-15-1514-
----5h7p5-4--3/4------8/9-10-7--5-4-----------------------------
5/7--------------5-7--------------------------------------------
----------------------------------------------------------------

-----------------------------------------------------------------
-----------------------------------------------------------------
12-14/15-15-1514-14h15p14-14-12-11-12-12/14-14-15-17-17-15-17--
-----------------------------------------------------------------
-----------------------------------------------------------------
-----------------------------------------------------------------

-------------------------------------------------------
13/15-16-1615-13-13/15-16-1615-15h16p15-15-13--------
------------------------------------------------15-14--
-----------------------------------------------------15
-------------------------------------------------------
-------------------------------------------------------

luego entra el ultimo verso de la misma forma
F      G#   A#   C
1-1---|4---|8---|----6--|
1--1-3|-4-6|-8-9|-8---8-|
2-----|----|----|7-7---7|
3-----|----|----|-------|esto hasta que termina
3-----|----|----|-------|
------|----|----|-------|
como...algo.comun

bueno eso es todo escuchenla primero para poderla sacar
dudas o sugerencias mandenlas por correo

Fuente original: LaCuerda
Colaborador original: the edge [r.c. f.]





Calificar esta versión:
Aviso: Este fichero es trabajo propio de su transcriptor y representa su interpretación personal de la canción. El material contenido en esta página es para exclusivo uso privado, por lo que se prohibe su reproducción o retransmisión, así como su uso para fines comerciales.
Más versiones de Algo En Comun, Enrique Bunbury
Algo En Comun
acordes
Algo En Comun
tablatura
Algo En Comun (ver 2)
tablatura
Algo En Comun
bajo
Descubre más canciones de Enrique Bunbury