Algo En Comun, Enrique Bunbury (tablatura)

Autor: Anónimo | 35060 visualizaciones



Este es el Solo; se oye chingon y es effectivo.

 E|-----------------------------------------|
 B|-----------------------------------------|
 G|------0/2--0-----------4-5-2-0-----------|
 D|-0/2----------4-2-0-2-----------4-5-7----|
 A|-----------------------------------------|
 E|-----------------------------------------|

  
 E|-----3-5-6-6-6-5--3-5/6--6-6-6-6-5-------|
 B|-3/5-------------------------------------|
 G|-----------------------------------------|

 
 E|-3-2-3--5-5--6--8-8--6-8/9-11-11-9--8/9--|
 B|-----------------------------------------|
 G|-----------------------------------------|


 E|-11-11-9-11-9--8-6-5---------------------|
 B|-----------------------------------------|
 G|-----------------------------------------|

  5/8/01 9:32 AM

Fuente original: LaCuerda
Colaborador original: Erick Silva [ericksilva@esmas.com]





Calificar esta versión:
Aviso: Este fichero es trabajo propio de su transcriptor y representa su interpretación personal de la canción. El material contenido en esta página es para exclusivo uso privado, por lo que se prohibe su reproducción o retransmisión, así como su uso para fines comerciales.
Más versiones de Algo En Comun, Enrique Bunbury
Algo En Comun
acordes
Algo En Comun
tablatura
Algo En Comun (ver 2)
tablatura
Algo En Comun
bajo
Descubre más canciones de Enrique Bunbury