Mil Horas, Enanitos Verdes (tablatura) (ver 2)

Autor: Anonimo | 41009 visualizaciones

Este es mi Primer Tab, se lo dedico a la banda en la que toco, 
seguro que voy a tener errores, asi que h¨¢ganmelo saber a mi mail
y d¨ªganme como es mejor.

Solo:
Esto se toca r¨¢pidamente como si fueran trecillos,
esas son las notas ustedes arr¨¦glenselas para sacarlo.

e|----------------|-9-8-7-99¡ª-X3|--11-10-9-11-11¡ªX3---|
B|---9-8-7-99--X6-|-------------|---------------------|
G|----------------|-------------|---------------------|
D|----------------|-------------|---------------------|
A|----------------|-------------|---------------------|
E|----------------|-------------|---------------------|

Inmediatamente despu¨¦s viene esto, hay partes en las que casi no se escucha,
pero p¨®nganle atenci¨®n, y otras partes muy r¨¢pidas, asi que deben de practicar
y les saldr¨¢.

e|--¡ü11-9H11--9---------------¡ª----8H9--------------------------------¡ª------|
B|----------11¡ª11H10H9--------9-11------11-9-----9---------------------------|
G|-----------------------9-11-----------------11--11-10-11-10-9s8-9-8-7-7-9--|
D|---------------------------------------------------------------------------|
A|---------------------------------------------------------------------------|
E|---------------------------------------------------------------------------|

e|------------8H9-8-------¡ª------------------------999-¡ü11¡ª---|
B|----------9-------11-9------------999--11-11-11-------------|
G|--9-9-9-9----------------11-11-11---------------------------|
D|------------------------------------------------------------|
A|------------------------------------------------------------|
E|------------------------------------------------------------|

Y esto es todo es un rollon asi que suerte

Saludos a Cuernavaca y todos los que son bien chidos como yo.

Fuente original: LaCuerda
Colaborador original: Hector Corona [Vih1927@gmail.com]
Aviso: Este fichero es trabajo propio de su transcriptor y representa su interpretación personal de la canción. El material contenido en esta página es para exclusivo uso privado, por lo que se prohibe su reproducción o retransmisión, así como su uso para fines comerciales.

Comentarios en Facebook: