Mil Horas, Enanitos Verdes (bajo) (ver 2)

Autor: Anónimo | 38182 visualizaciones

INTRO:

0)-----

G--------------------------------------------------------------------
D--------------------------------------------------------------------
A----------------------------------2-4-4--2-4-4--2-4-4--2-4-4--------
E-4-4--2-4-4--2-4-4--2-4-4-------------------------------------------


G---------------------------------------------------------------------
D------------------------------------------------------2-4-4--2-4-4---
A------------------------------------2-4-4--2-4-4---------------------
E--2-4-4--2-4-4--2-4-4--2-4-4-----------------------------------------


1)------

e------------------------------------------------------------------
b------------------------------------------------------------------
g------------------------------------------------------------------
d------------------------------------------------------------------
a--------------------------------------------3-0-----------3-0-----
e--5----5-0-3-5---5-0-3-5----5-0-3-5-------5--------5—5--5-------3~

2)------

e-------------------------------------------------------------------
b-------------------------------------------------------------------
g-------------------------------------------------------------------
d-------------------------------------------------------------------
a-------------1-3--------3-0-----5-5-3-----3-0----3-3-1------3-1-3--
e----3----3-3-------------------------------------------------------


3)-------

e-------------------------------------------------------------------
b-------------------------------------------------------------------
g-------------------------------------------------------------------
d-------------------------------------------------------------------
a----1-3------5-3---3-1---------------------------------------------
e--3------------------------3-1-3-----------------------------------

4)-------

e-------------------------------------------------------------------
b-------------------------------------------------------------------
g-------------------------------------------------------------------
d-------------------------------------------------------------------
a-------------------------------------------------------------------
e---5/6-5-----------8~----------------------------------------------



Orden:

(0)-(1)—(2)-(2)-(1)-(3)-(3)-(2)-(2)-(2)-(2)-(3)-(3)-(4)
Aviso: Este fichero es trabajo propio de su transcriptor y representa su interpretación personal de la canción. El material contenido en esta página es para exclusivo uso privado, por lo que se prohibe su reproducción o retransmisión, así como su uso para fines comerciales.

Comentarios en Facebook: