Rodeas La Eternidad, En Espiritu Y En Verdad (tablatura)

Autor: Anónimo | 15098 visualizaciones

Esta Es la version original de la guitarra de esta cancion
y si cuentan
con pedalera y guitarra electrica utilizen las sig efectos:
DELAY & DELAY KILLER,
 DISTOR,
 PREAM,
 COMPRESOR,
 REVER.
Estoy convencido de que si lo hacen bien les quedara una super rola
llena de efectos
CUALQUIER DUDA ESCRIBANME A KADOSH_DIOS@HOTMAIL.COM
Aqui esta la intro¡¡¡

primero es esto
escuchen bien en el principio
E-----------0-----------------------
B-------------0---------------------
G------7----------------------------
D---------9-------------------------
A-----------------------------------
E-----------------------------------

toque solo las cuendas una por una y las cuerdas al aire
son primero E y B y en lo que sigue
las notas al aire ban en el mismo orden
es decir (f#,D y al aire E y B) O` 9-7-0-0
despues ba esto (esto sigue siendo la intro pero ya cuando se oye
el bajo)
//G D A B//
//1.-
  E-----------0-------------------
  B-------------0-----------------
  G------7------------------------
  D---------9---------------------
  A-------------------------------
  E-------------------------------
2.-
E------------0------------------
B--------------0----------------
G------6------------------------
D---------7---------------------
A-------------------------------
E-------------------------------
3.-
E-----------0-------------------
B------------0------------------
G-----4-------------------------
D---------5---------------------
A-------------------------------
E-------------------------------//
esto se hace tambien cuando Omar canta las 2 primeras estrofas
o bien estos son los acordes estandard
G                          D
tu luz esta resplandeciendo,
             A                      B
sobre los rotros cambiando su exprecion
G                 D                A
haz destinado este tiempo para salvacion
          B
para volvernos a tu justicia
G                  D              A
Haz estinado este tiempo para salvacion
                 B
para llenar la tierra con tu gloria

En la pate que sigue hacen esto cuerda por cuerda
esto es en el precoro
E------------------------------
B------------------------------
G------------------------------
D-------4---4----4-------------
A-----5------------------------
E-2-3----5---3------3----------
                              B-A-Em
//atrayendo los corazones a ti//

Coro:
      G         D           A    B
//Nuestro salvador tu reinas con poder
        G             D             A     B
tu justicia y tu verdad rodean la eternidad//

G                  D              A
Haz destinado este tiempo para salvacion
                B
para llenar la tierra con tu gloria
E------------------------------
B------------------------------
G------------------------------
D-------4---4----4-------------
A-----5------------------------
E-2-3----5---3------3----------
                              B-A-Em
//atrayendo los corazones a ti//

Coro:
      G         D           A    B
//Nuestro salvador tu reinas con poder
        G             D             A     B
tu justicia y tu verdad rodean la eternidad//

En la parte de despierta a los violentos hay no hacemos nada sino
hasta el puente musical que es este:

//Despierta a los violentos por tu reino,
a los conocen tu nombre//
Puente
//B, G//
Solo:
aqui se corta el puente musical y
entramos con mas fuerza las guitarras

E--------------------------------
B-----15--14---12----14---12---14
G----------14--------------------
D--------------------------------
A----------14--------------------
E--------------------------------

E--------------------------------
B--------------------------------
G-----14--------11---------------
D-----------13-------------------
A--------------------------------
E--------------------------------

E--------------------------------
B-----15-14----12----14---12---14
G---------14---------------------
D--------------------------------
A---------14---------------------
E--------------------------------
en las ultimas notas que se distingen antes del muteo del coro son
G, y B
en el espontaneo son las mismas notas pero mas lentas

Alguna duda o comentario mi correo es kadosh_dios@hotmail.com
porfa califiquenme. se que la rola esta facil si la practican
y no olviden NO PRESUMAN ADOREN EN ESPIRITU Y EN VERDAD¡¡¡¡¡
DIOS LOS VENDIGA
SALUDOS A HOSANA, MARIANA VIANNEY Y A EIDA VIRIDIANA. LAS Q,M
Calificar esta versión:
Aviso: Este fichero es trabajo propio de su transcriptor y representa su interpretación personal de la canción. El material contenido en esta página es para exclusivo uso privado, por lo que se prohibe su reproducción o retransmisión, así como su uso para fines comerciales.
Más versiones de Rodeas La Eternidad, En Espiritu Y En Verdad
Rodeas La Eternidad
acordes
Rodeas La Eternidad
tablatura
Rodeas La Eternidad
bajo
Descubre más canciones de En Espiritu Y En Verdad