Rodeas La Eternidad, En Espiritu Y En Verdad (bajo)

Autor: Anónimo | 32408 visualizaciones

Hola!!..Bueno este es el bajeo de esta cancion y la vdd esta chida..!
ME la acaban de pasar y ps me encanto..mas el coro!!

Esta asi de feeling al mil!!..echenle ganas chavos..!!

Saludos a todos en coatza! neta que estamos viviendo tiempos
dificiles hnos!! con tanta maldad ...pero Dios TODOPODEROSO AL QUE
ALABO nos va a sacar de todo esto..!!

Lo creo..necesitamos de sus oraciones HNOS de latinoamerica y del mundo..
Por mi ciudad..y por MEXICO..

Bueno sin mas..escuchenla para poder sacar los tiempos..


Verso1

E -7--------5s7-s3--------------
A ---s9-5-7---------------------
D ------------------------------
G ------------------------------

E -7--------5s7-s3--------------
A ---s9-5-7---------------------
D ------------------------------
G ------------------------------

Pre coro
E -2--3-----5-----3-------0-----
A --------5------5----2-0-------
D --------------5---------------
G ------------------------------

VERso 2

E -7---------5-3---7----------5-3-
A ---9-7-5-7---------7-9--5-7-----
D --------------------------------
G --------------------------------

precoro

E -2(x8)-3(x8)------5(x8)-3(x16)-7(x4)-5(x4)-0(x4)--
A -------------5(x8)--------------------------------
D --------------------------------------------------
G --------------------------------------------------

Aqui les puse asi para no poner ocho veces 2 ajjaja
mejor le puse asi..!! ojala le entiendan...cada una de las
notas se toca el numero de veces que esta entre parentesis..!!


Coro

E -3-----5--7------3----5----------
A ----5---------------5------------
D ---------------------------------
G ---------------------------------

El coro escuchenlo..no hay tanto problem..namas fijense de la
velocidad...par que cheken..!


SEGUNDA PARTE


Verso1

E -7--------5s7-s3--------------
A ---s9-5-7---------------------
D ------------------------------
G ------------------------------



E -7---------5-3---7----------5-3-
A ---9-7-5-7---------7-9--5-7-----
D --------------------------------
G --------------------------------

precoro

E -2(x8)-3(x8)------5(x8)-3(x16)-7(x4)-5(x4)-0(x4)--
A -------------5(x8)--------------------------------
D --------------------------------------------------
G --------------------------------------------------



Aki hay un pequeño puente que no lo quise poner porque es
basico..son las notas nada mas marcadas!!

Y lleva un puentesito de bajo pero nada mas juega con SOL y SIM..
pasando algunas veces por DO# y RE..pero es asi puro feelinng!

Coro

E -3-----5--7------3----5----------
A ----5---------------5------------
D ---------------------------------
G ---------------------------------
Este pedazito se hace nada mas al entrar despues del puente.
Y luego se toca lo de abajo..es una modificacion...



E -3-----5--7------3--------------
A ----5---------------5--7---------
D ---------------------------------
G ---------------------------------

Bueno ..escuchenla..y ps saquenla a su gusto..ahi nada mas esta la base
pero cada uno tiene su estilo, solo no hagan aberraciones!! jajaj

DLS..

Cual quier cosa al correo bggs15@hotmail.com..los atiende su hno en Cristo
JORGE!!,,

SALUDOS DESDE MEXICO!
Calificar esta versión:
Aviso: Este fichero es trabajo propio de su transcriptor y representa su interpretación personal de la canción. El material contenido en esta página es para exclusivo uso privado, por lo que se prohibe su reproducción o retransmisión, así como su uso para fines comerciales.
Más versiones de Rodeas La Eternidad, En Espiritu Y En Verdad
Rodeas La Eternidad
acordes
Rodeas La Eternidad
tablatura
Rodeas La Eternidad
bajo
Descubre más canciones de En Espiritu Y En Verdad