Generación Que Danza, En Espiritu Y En Verdad (tablatura) (ver 2)

Autor: Anónimo | 41940 visualizaciones

Una muy buena cancion de En espiritu y en Verdad,
con un gran mensaje para los jovenes.

Simbologia:
-------------------------
s: slide
h: hammer
p: pull-off
P.M ----> (.): palm mute
~: dejar sonar
-------------------------

Nota: En la canción se usa un poco el delay,
ustedes vean cuanto hay que ponerle para que haga el eco.

INTRO/VERSO X2

Esta parte él la toca con el tremolo, pero pueden usar el
delay con palm mute para hacerlo más sencillo, personalmente,
creo que asi se oye mejor.

E|----------------------------------------------------------|
B|----14-14-14-14---------------14-14-14-14-----------------|
G|----------------15-15-15-15---------------15-15-15-15-----|  x7
D|----------------------------------------------------------|
A|----------------------------------------------------------|
E|----------------------------------------------------------|

E|-----------------------|------------------------|
B|---8-----8---7---7-----|---5------5---7---7-----| Esta parte se toca
G|-----7--7------7---7---|-----7--7-------7---7---| hasta la tercera vez.
D|-----------------------|------------------------|
A|---------(x2)----------|------------------------|
E|-----------------------|------------------------|
P.M.        .  .      .   .       .  .       .   .


PRECORO

Esta parte es igual al intro, con tremolo picking o delay/palm mute

E|-----------------------------------------------------------------|
B|--5-5-5-7-7-7-8-8-8---7-7-7-8-8-8-10-10-10--3-3-3-5-5-5-7-7-7----|
G|-----------------------------------------------------------------|
D|-----------------------------------------------------------------|
A|-----------------------------------------------------------------|
E|-----------------------------------------------------------------|


CORO

El coro es simple, solo fijense en los cambios para
ir viendo cuando entrar con el siguiente acorde.

(D-Em-G-D)

E|--------------------|
B|---3---5---8---3----|
G|---2---3---7---2----|  x2
D|---0---2---5---0----|
A|--------------------|
E|--------------------|


---INTRO----

---CORO----


SOLO

En esta parte, otra vez, pueden escoger usar
delay/palm mute o el tremolo.

E|-----------------------------------------------------------------|
B|-----------------------------------------------------------------|
G|--7-7-7-7-9-9-9-9-11-11-11-11--9-9-9-9-11-11-11-11-12-12-12-12---|
D|-----------------------------------------------------------------|
A|-----------------------------------------------------------------|
E|-----------------------------------------------------------------|

E|-------------------------------------------------------------------|
B|--12-12-12--14-14-14-15-15-15--------------------------------------|
G|-------------------------------11-11-11-9-9-9-12-12-12-11-11-7-7-7-|
D|-------------------------------------------------------------------|
A|-------------------------------------------------------------------|
E|-------------------------------------------------------------------|



PRECORO 2

Esta parte son quintas con palm mute.


E|------------------------|
B|------------------------|
G|------------------------|
D|--222--444--555--777----|
A|--222--444--555--777----|
E|--000--222--333--555----|

    ...  ...  ...  ...

Despues la misma segunda parte del primer precoro:


E|-----------------------------------------------------------------|
B|--5-5-5-7-7-7-8-8-8---7-7-7-8-8-8-10-10-10--3-3-3-5-5-5-7-7-7----|
G|-----------------------------------------------------------------|
D|-----------------------------------------------------------------|
A|-----------------------------------------------------------------|
E|-----------------------------------------------------------------|


---CORO---


OUTRO

En esta parte, justo antes de terminar hacen esta serie de octavas:

E|---------------------------|
B|---------------------------|
G|---12-/-11-/-9-/-6-/-7~----|
D|---x----x----x---x---x-----|
A|---10-/-9-/--7-/-4-/-5~----|
E|---------------------------|


Bueno ahi esta, espero este completica ;D
Ojala sea de gran bendicion! DLB ^_^
Calificar esta versión:
Aviso: Este fichero es trabajo propio de su transcriptor y representa su interpretación personal de la canción. El material contenido en esta página es para exclusivo uso privado, por lo que se prohibe su reproducción o retransmisión, así como su uso para fines comerciales.
Más versiones de Generación Que Danza, En Espiritu Y En Verdad
Generacion Que Danza
acordes
Generación Que Danza
tablatura
Generación Que Danza (ver 2)
tablatura
Generación Que Danza
bajo
Generación Que Danza (ver 2)
bajo
Descubre más canciones de En Espiritu Y En Verdad