Generación Que Danza, En Espiritu Y En Verdad (bajo)

Autor: Anónimo | 45643 visualizaciones

Hola! que tal?
bueno pues aquí les
dejo este Tab para bajo electrico
de esta rola que de
hecho la estuve ensayando
pero no me gustaron los tab asi
que decidi sacarlos
por mi cuenta guiandome en unos acordes
dios les bendiga


Intro:
(Arranca la bataca i seguida de la guitarra electrica y
 despues el bajo)


E|------------------------------|
A|-5-3-5---5-3-5--2-0-2--2-0-2--|
D|--------------3-------------3-|
G|------------------------------|

Tu amor me enseña a danzar ...( se repite en intro)

E|------------------------------|
A|-5-3-5---5-3-5--2-0-2--2-0-2--|
D|--------------3-------------3-|
G|------------------------------|

y con danza daremos gracias

E|-3(2)-------3(2)-------|
A|------------------D(2)-|
D|-----------------------|
G|-----------------------|

Tu gloria enseña gritar..

E|------------------------------|
A|-5-3-5---5-3-5--2-0-2--2-0-2--|
D|--------------3-------------3-|
G|------------------------------|

y con gritos te damos la gloria

E|-3(2)-------3(2)-------|
A|------------------D(2)-|
D|-----------------------|
G|-----------------------|





   E                        F#
Es el desbordar de un libre corazon
           G
Y hoy te vemos dios
A
Callar es imposible

D
Seremos la generacion que danza
E                               G
Que danza por tu gran amor oh Dios
                 D
Tu gran amor oh Dios
A  D
  Seremos la generacion que grita
E                               G
Que grita por tu grande gloria Dios
                  D
Tu grande gloria Dios




se repite el intro y lo demas:

aqui es algo mas rapido

tu ano me enseña...
E|------------------------------------|
A|-5-3-5-5-3-5-3-5--2-0-2--2-0-2-0-2--|
D|----------------3-----------------3-|
G|------------------------------------|



E|------------------------------|
A|-5-3-5---5-3-5--2-0-2--2-0-2--|
D|--------------3-------------3-|
G|------------------------------|

y se sigue...

espero que se a de
de bendicion
la cancion esta
muy facil
solo dificulta un poquito sacando
los tiiempos
pero esta facil
las notas es lo mas facil
se sacan en 2 cuerdas E y la A
bueno dios les bendiga
toda la gloria y toda la alabanza
a aquel que nos redimio jesucristo
rey de reyes y señor de señores.
Calificar esta versión:
Aviso: Este fichero es trabajo propio de su transcriptor y representa su interpretación personal de la canción. El material contenido en esta página es para exclusivo uso privado, por lo que se prohibe su reproducción o retransmisión, así como su uso para fines comerciales.
Más versiones de Generación Que Danza, En Espiritu Y En Verdad
Generacion Que Danza
acordes
Generación Que Danza
tablatura
Generación Que Danza (ver 2)
tablatura
Generación Que Danza
bajo
Generación Que Danza (ver 2)
bajo
Descubre más canciones de En Espiritu Y En Verdad