El Plebeyo, El Peru Criollo (tablatura)

Autor: Anónimo | 42552 visualizaciones

Introducción:Esto esta en el disco de Edith Bar

E|----------------9-12-9-15-12-17---------------
B|-------------10--------------14---------------
G|--------9-12----------------------------------
D|-----11---------------------------------------
A|-s12------------------------------------------
E|----------------------------------------------

E|-15-13-12-10-9-6-5-3-1-0-----3------------------
B|-------------------------3-2--------------------
G|-15-14-12-10-9-7-6-3-2-0-----3------------------
D|-------------------------3-3--------------------
A|------------------------------------------------
E|------------------------------------------------

E|--------------------------—--------
B|-----------------------------------
G|-----------------------------------
D|-----0-----0-----0-----------------
A|---0-----0-----0-------------------
E|-1-----1-----1---------------------

Aqui viene la cancion:

E|-------------|-------------—|-------------------
B|-------5---6-|--5-----------|-------------------
G|---7-6---7---|----7-6-7-----|-------------------
D|-7-----------|----------8-7-|-------5---7-7-----
A|-------------|--------------|-5-8-7---8---------
E|-------------|--------------|-------------------


E|---------------------|----—--------|--------------
B|-------5-------------|---------5-8-|-6-5-7-5------
G|---7-6---7-6-7-------|-------6-----|---------7-6--
D|-7-------------7-6-5-|-7-7-7-------|--------------
A|---------------------|-------------|--------------
E|---------------------|-------------|--------------


E|---------------|---------------|—---------------
B|---------------|---------------|----------------
G|---------------|-----------7---|----------------
D|-7-7-7-7-7-8-7-|-7-7-7-7-7---7-|-7-7-6-5--------
A|---------------|---------------|---------8------
E|---------------|---------------|----------------


E|-------------|-------------
B|-------5---6-|-5-----------
G|---7-6---7---|---7-6-7-----
D|-7-----------|---------8-7-
A|-------------|-------------
E|-------------|-------------


E|------------------------------—---------------
B|-7-7-7-7-7-7-5---7-5---7-5--8-----------------
G|---------------7-----7-----7--7---------------
D|--------------------------------8-------------
A|----------------------------------------------
E|----------------------------------------------


E|-------------|---------------—---
B|-----------8-|-6-5-8-6-5-6-------
G|---------7---|-------------------
D|-5-5-5-8-----|-------------------
A|-------------|-------------------
E|-------------|-------------------


E|-----------------------------|--—----------------
B|---------5-----5-6-5-----5---|-8-8-6-5---8-------
G|-------7-----7-------7-6---7-|---------7---------
D|-7-7-7-----6-----------------|-------------------
A|-----------------------------|-------------------
E|-----------------------------|-------------------


E|-------------|--—--------------------------
B|-6-5-8-6-5-6-|---------5-6---5-6-5-----5---
G|-------------|-------7-----7-------7-6---7-
D|-------------|-7-7-7-----------------------
A|-------------|-----------------------------
E|-------------|-----------------------------


E|-------------|--—----|------------
B|-6-6-6-8-6-5-|-8-5---|------------
G|-------------|-----7-|-7-5-7-6----
D|-------------|-------|------------
A|-------------|-------|------------
E|-------------|-------|------------


E|---------------|--—------------|--------------------------
B|---------------|---7-7-7-5-8-7-|-7-7-5-----5--------------
G|---------------|---------------|-------7-6---7-6-4--------
D|-7-9-7-9-7-9-7-|-7-------------|-------------------7--7-5-
A|---------------|---------------|--------------------------
E|---------------|---------------|--------------------------


E|---------------|--—------------|---------------------------
B|---------------|-5-5-5-5-7-8-5-|-7-8-5-7---5---------------
G|---------------|---------------|---------7---6-----7-------
D|---5-4-5-4-7-5-|---------------|---------------9-7---7-5-4-
A|-7-------------|---------------|---------------------------
E|---------------|---------------|---------------------------


E|---2-2-2-2-2-2-|--—------------|---------------|-----------
B|---------------|-2-5-4-5-4-5-3-|-3-3-2---------|-4---------
G|---------------|---------------|-------4-3-4-4-| --4-4-2---
D|-4-------------|---------------|---------------|--------5--
A|---------------|---------------|---------------|-----------
E|---------------|---------------|---------------|-----------


E|-----------2----|--—2-----------|-----------0-0-
B|-------------5--|-5---5-3-2-5-3-|-3-3-3-3-3-----
G|-4-4-4-4-4------|---------------|---------------
D|----------------|---------------|---------------
A|----------------|---------------|---------------
E|----------------|---------------|---------------


E|-0-2-0-2-1-0-|-2-3—0-2---0---|--------0------
B|-------------|---------3---2-|-0---2----3----
G|-------------|---------------|---2---2-------
D|-------------|---------------|---------------
A|-------------|---------------|---------------
E|-------------|---------------|---------------
Calificar esta versión:
Aviso: Este fichero es trabajo propio de su transcriptor y representa su interpretación personal de la canción. El material contenido en esta página es para exclusivo uso privado, por lo que se prohibe su reproducción o retransmisión, así como su uso para fines comerciales.
Más versiones de El Plebeyo, El Peru Criollo
El Plebeyo
acordes
El Plebeyo
tablatura
Descubre más canciones de El Peru Criollo