Cuando Llora Mi Guitarra, El Peru Criollo (tablatura)

Autor: Anónimo | 29499 visualizaciones

Si quieren ver como se toca esta cancion entren a :
http://www.youtube.com/watch?v=CKTZICkbBNA


Introduccion:

E|-5--1----|-0-1-1-0-1-0-1-3-3-1-0---
B|-6--3--3-|-------------------------
G|-------2-|-------------------------
D|---------|-------------------------
A|---------|-------------------------
E|---------|-------------------------


E|-------0-0---0---0--------------
B|-----1-----1---1---3-2-3--5-5-5-5--
G|-2-2----------------------------
D|--------------------------------
A|--------------------------------
E|--------------------------------


E|---------------0-1-0-----------
B|-----0-3-3-2-3-------3-1--------
G|---1---------------------------
D|-2-------------------------------
A|--------------------------------
E|--------------------------------

Melodia de la cancion


E|---------------|---------0-1---|---1-1-----1-1-
B|---------0-1---|-------3-----3-|-3-----0-0-----
G|-------2-----2-|-2-2-2---------|---------------
D|-2-2-2---------|---------------|---------------
A|---------------|---------------|---------------
E|---------------|---------------|---------------

E|-0-----------|---------0-1---|-----------0--------
B|---3-1-0-2-0-|-3-3-2-3-----3-|-1-1-0-1-3---1------
G|-------------|---------------|--------------------
D|-------------|---------------|--------------------
A|-------------|---------------|--------------------
E|-------------|---------------|--------------------

E|---------------|-----------0—---
B|-1-1-0-1-2-3-0-|-1-1-0-1-3------
G|---------------|----------------
D|---------------|----------------
A|---------------|----------------
E|---------------|----------------



E|---------0-1---|-----------0---
B|-3-3-2-3-----3-|-1-1-0-1-3---1-
G|---------------|---------------
D|---------------|---------------
A|---------------|---------------
E|---------------|---------------



E|---------------|-0-0---------—-
B|-1-1-0-1-2-3-0-|-----3-1-0-2---
G|---------------|---------------
D|---------------|---------------
A|---------------|---------------
E|---------------|---------------



E|-------0---0-1-1----0---0-1---------
B|-3-3-3---3--------3---3-------------
G|------------------------------------
D|------------------------------------
A|------------------------------------
E|------------------------------------


E|-------------0-0---------0--
B|-1-1-1-3-1-3-----1-3-1-3----
G|----------------------------
D|----------------------------
A|----------------------------
E|----------------------------


E|-5--1----|------0-1-1-0-1-0-1--0---0------—-
B|-------3-|----3------------------3---1------
G|---------|--2-------------------------------
D|---------|----------------------------------
A|---------|----------------------------------
E|---------|----------------------------------


E|-------0-0---0---0--------------
B|-----1-----1---1---3-2-3-0------
G|-2-2----------------------------
D|--------------------------------
A|--------------------------------
E|--------------------------------


E|---------------0-1-0-3-1-0--------
B|-----0-3-3-2-3----------------
G|---1---------------------------
D|-2-------------------------------
A|--------------------------------
E|--------------------------------

E|-5--1----|------0-1-1-0-1-0-1--0---0------—-
B|-------3-|----3------------------3---1------
G|---------|--2-------------------------------
D|---------|----------------------------------
A|---------|----------------------------------
E|---------|----------------------------------


E|-------0-0---0---0--------------
B|-----1-----1---1---3-2-3-0------
G|-2-2----------------------------
D|--------------------------------
A|--------------------------------
E|--------------------------------


E|---------------0-1-0-----------
B|-----0-3-3-2-3-------3-1--------
G|---1---------------------------
D|-2-------------------------------
A|--------------------------------
E|--------------------------------
Calificar esta versión:
Aviso: Este fichero es trabajo propio de su transcriptor y representa su interpretación personal de la canción. El material contenido en esta página es para exclusivo uso privado, por lo que se prohibe su reproducción o retransmisión, así como su uso para fines comerciales.
Más versiones de Cuando Llora Mi Guitarra, El Peru Criollo
Cuando Llora Mi Guitarra
acordes
Cuando Llora Mi Guitarra
tablatura
Descubre más canciones de El Peru Criollo