Alma, Corazón Y Vida, El Peru Criollo (tablatura)

Autor: Anónimo | 26353 visualizaciones

tono: lam

Acordes:

  Am(LAm)  A7(LA7)  Dm(REm)  E(MI)    G(SOL)    F(FA)
  E|-0-|   E|-0-|   E|-1-|   E|-0-|   E|-3-|   E|-1-|
  B|-1-|   B|-2-|   B|-3-|   B|-0-|   B|-0-|   B|-1-|
  D|-2-|   D|-0-|   D|-2-|   D|-1-|   D|-0-|   D|-2-|
  G|-2-|   G|-2-|   G|-0-|   G|-2-|   G|-0-|   G|-3-|
  A|-0-|   A|-0-|   A|-0-|   A|-2-|   A|-2-|   A|-3-|
  E|-0-|   E|-0-|   E|-0-|   E|-0-|   E|-3-|   E|-1-|




Intro:

        LAm                     SOL                      FA

e-5(tria)-5-5--8-8-5-8-|---------------7-7---7-|---------- ---5-5---5--|
A----------5-5-5-5-5-5-|-8(tria)-8-8-8-8-8-8-8-|6(tria)-6-6-6-6-6-6-6--|
D----------------------|----------7-7------7---|---------5-5------5----|
G----------------------|-----------------------|-----------------------|
B----------------------|-----------------------|-----------------------|
E----------------------|-----------------------|-----------------------|

         MI                REm                   LAm

e---------------6-|-------5-5---5----|----------------5-5---5--|
A-5(tria)-5-5-5-5-|---6-6-6-6-6-6----|--5(tria)-5-5-5-5-5-5-5--|
D----------6-6----|--7-7------7------|-----------5-5------5----|
G-----------------|------------------|-------------------------|
B-----------------|------------------|-------------------------|
E-----------------|------------------|-------------------------|


          MI                        LAm

e-10-7------------12-10-8|--------8---8-------------|
A-----9------------------|------10---10-------------|
D------------------------|-----9------9-------------|
G------------------------|-9-10------10-------------|
B7-----7-6---7-6-7-------|--------------------------|
E----------8-7-----------|--------------------------|



        Recuerdo aquella vez
                         LAm-LA7
        que yo te conocí
                       REm
        recuerdo aquella tarde
                           LAm
        pero no recuerdo ni como te Vi
               MI                          LAm
        pero cite dire
                    LAm-LA7
        que yo me enamore
                        REm
        de esos tus lindos ojos
                             LAm
        y tus labios rojos que no olvidare
                  MI                  LAm


        Oye esta canció que lleva
        LAm
        alma corazón y Vida
        SOL
        estas tres cositas
        FA
        nada nada mas te doy
                                     MI

        Porque no tengo fortuna
        LAm
        estas tres cositas te ofrezco
        SOL
        alma corazón y vida y nada mas
        FA                           MI

        Alma para conquistarte
        REm
        corazón para quererte
        LAm
        y vida para vivirle Junto a ti (bis)
         MI                                  LAm-LA7

te amo con todo mi amor para ti
Calificar esta versión:
Aviso: Este fichero es trabajo propio de su transcriptor y representa su interpretación personal de la canción. El material contenido en esta página es para exclusivo uso privado, por lo que se prohibe su reproducción o retransmisión, así como su uso para fines comerciales.
Más versiones de Alma, Corazón Y Vida, El Peru Criollo
Alma, Corazón Y Vida
acordes
Alma, Corazón Y Vida
tablatura
Descubre más canciones de El Peru Criollo