Crash, El Canto Del Loco (tablatura) (ver 2)

Autor: Anónimo | 33748 visualizaciones

Chicos/as (cm diria mi profe de historia), aki teneis esta cancion de los locos
 q es mu wena. a mi m suena mu bien y esta mu currada, para
alguna duda, sujerencias o lo q sea por ahi teneis mi mail.
                   ¡¡QUE LA DISFRUTEIS!!
ahh otra cosa, cm sabeis en este grupo hay dos guitarras, esta
es la q yo denomino numero 1, q seria la les paul de david


e---2--2--2--4--4--4--6--6--6--4--4--4     esto se toca
b---0--0--0--0--0--0--0--0--0--0--0--0     2 veces

Dale más          velocidad

        e--2-----2-----2-2-4-----4-----4-4
        b--0-0-0-0-0-0-0-0-0-0-0-0-0-0-0-0

  en menos de tre horas podemos llegar 

 -6-----6-----6-6-4-----4-----4       y empieza otra vez.
 -0-0-0-0-0-0-0-0-0-0-0-0-0-0-0       esto es rapidísimo

           suuubeme    la radio maaas

        e--2-----2-----2-2-4-----4-----4-4
        b--0-0-0-0-0-0-0-0-0-0-0-0-0-0-0-0

  enciendete un cigarro y dale caña ya!    

 -6-----6-----6-6-4-----4-----4
 -0-0-0-0-0-0-0-0-0-0-0-0-0-0-0

  no podia soportaaar               el humo asqueroso de la ciudad
  
  Bn            B11                  Bn                   B11

  ha llegado el momento crucial     nos vamos a la playa y ...

  Bn            B11                  Bn                   B11


                   Sólo yo tengo el poder

            e---------------------------
            b------2---------------4----
            g----3---3-----------3---3--
            D--4--------------4---------
            A---------------------------
            E---------------------------

  el volante en mismanos  yo controlaré

  Bn                      Bm

            no me digas q tengo que hacer

            e---------------------------
            b------2---------------4----
            g----3---3-----------3---3--
            D--4--------------4---------
            A---------------------------
            E---------------------------

  iremos a 200    y si no bajateeee

  Bn                      Dn

         g-------------9---------           dos
         D--6/8-8-9-11---11-9-8--          veces

           cn el 9 se hace bending

  na na na, na na na na naa na na naaaaaaaaaaa

     Bn       B11                 Bn         B11
     
  na na na, na na na na naa na na naaaaaaaaaaa

     Bn       B11                 Bn         B11


   A PARTIR DE AQUI ES TODO LO MISMO HASTA LOS NA NA NA, 
   serian asi:
  
   na na na...

    Bn   B11     Bn   B11
   
    Bn   B11     Bn   B11

    G    F       G    F

    G    F       G    F

    B    A       B    A

    B    A       B    A
   
    G



    Acordes utilizados:

           
          An        B11      Bm     Dn      G      F      B      A
    e          2        2       2      5      3      1      7      5
    b          2        2       3      5      3      1      7      5
    g          3        2       4      6      4      2      8      6
    D          4        2       4      7      5      3      9      7
    A          4        2       2      7      5      3      9      7
    E          2       (2)     (2)     5      3      1      7      5


    Esto es todo, lo dicho, alguna duda sugerencia... al mail

Fuente original: LaCuerda
Colaborador original: david j [medioahijado@hotmail.com]
Calificar esta versión:
Aviso: Este fichero es trabajo propio de su transcriptor y representa su interpretación personal de la canción. El material contenido en esta página es para exclusivo uso privado, por lo que se prohibe su reproducción o retransmisión, así como su uso para fines comerciales.
Más versiones de Crash, El Canto Del Loco
Crash
acordes
Crash (ver 2)
acordes
Crash
tablatura
Crash (ver 2)
tablatura
Descubre más canciones de El Canto Del Loco