Esos Ojos Negros, Duncan Dhu (tablatura)

Autor: Anónimo | 37680 visualizaciones

Hola a todos , esto que les mando es un complemente de una de las versiones 
que hay de esta cancion , incluyendo el solo , espero que les guste .

La canción lleva dos guitarras , la primera , siempre toca los acordes , 
y la segunda toca el riff y el solo.

Intro G

A.        G                 G7
        Esos ojos negros,
                                  C
        esos ojos negros no los quiero ver llorar
              Am                        D
        tan solo quiero escuchar, dime
                        C       D
        lo que quiero oir, dime
                     C       D
        que vas a reir, dime
                        C               G  C7
        dime ahora que duerme la ciudad



A.      Hace ya algun tiempo,
        hace ya algun tiempo que tu voz parece ser
        una pluma y un papel, que cuentan
        que van a volar en sue¤os
        que seran tus ojos negros,
        los que me iluminen al andar ( Riff )

Riff 
] -----------------------------------------------------------------------
] -----------------------------------------------------------------------
] -------------0-2*3*2-0-------------------------------------------------
] ---------0-2-----------2-0---------------------------------------------
] ---0-1-2-------------------2-------------------------------------------
] –3---------------------------------------------------------------------


B.      G        
        La lluvia cae sobre el suelo gris
        Bm
        el tiempo pasa y no puedo reir
        G
        la noche es larga, mi voz amarga,
        Bm
        hoy he visto despertar el sol
        D
        y tus pupilas, brillaran,
              C         D         G
        pero espera descuida, que ya veras
              C         D         G7
        los buenos tiempos volveran
              C         D         G     C7
        pero espera descuida, que ya vendran
              C         D       G
        la lluvia los devolvera.   ( Riff )



En el solo la primera guitarra toca los acordes de la parte “ A “ 

Solo

] ----3-----5—7---5-—5------3----5-3-----3-------------------------------
] –1/3—--3/5-5—-5---5-5—1/3----3-----3-----3----------------1-3*4*3-1----
] -------------------------------------0-----0----------0-2-----------2--
] ------------------------------------------------0-1-2------------------
] ---------------------------------------------3-------------------------
] -----------------------------------------------------------------------
 
] -----------------------------------10—-12-14—--14—-12---12------10—-12-
] -------------------------------6/7---7-------12-------10----6/7---7----       
] –0---------2-4/5-4-2---------------------------------------------------
] ---2---2/4-----------4-3-2-0-------------------------------------------
} -----5-----------------------------------------------------------------
] -----------------------------------------------------------------------

] –14---14—-12---12------10—-12---14---14—-12---12-----------------------
] ----12-------10----6/7---7---10----12-------10-------------------------
] -------------------------------------------------------------0-2*3*2-0-
] ---------------------------------------------------------0-2-----------
] ---------------------------------------------------0-1-2---------------
] -------------------------------------------------3---------------------

] -------
]--------
] -------
] –2-----
] -------
] -------



B.      G        
        La lluvia cae sobre el suelo gris
        el tiempo pasa y no puedo reir
        la noche es larga, mi voz amarga
        hoy he visto despertar el sol
        y tus pupilas, brillaran,
        pero espera descuida, que ya veras
        los buenos tiempos volveran
        pero espera descuida, que ya vendran
        la lluvia los devolvera. ( Riff )


Aquí entran las dos guitarras con los acordes y se dividen al final      
( primera acordes , y segunda Riff )
 
A.        G                 G7
        Esos ojos negros,
                                  C
        esos ojos negros no los quiero ver llorar
              Am                        D
        tan solo quiero escuchar, dime
                        C       D
        lo que quiero oir, dime
                     C       D
        que vas a reir, dime
                        C               G 
        dime ahora que duerme la ciudad( Riff )
        D                C              G 
        dime ahora que duerme la ciudad( Riff )
        D                C (   pausa  ) G            G D G
        dime ahora que duerme la ciudad
                                     ] ---------------------
                                     ] ---------------------
                                     ] ---------------------
                                     ] ---------0-2—-5-4-5--
                                     ] ---0-1-2-------------
                                     ] –3-------------------

                                     

Bueno , eso es todo , espero que les guste , cualquier comentario 
critica o lo que quiieran decir , sera recibido con todo gusto ,  Adios.

Fuente original: LaCuerda
Colaborador original: Eduardo Jimenez [capuleto17@latinmail.com]
Calificar esta versión:
Aviso: Este fichero es trabajo propio de su transcriptor y representa su interpretación personal de la canción. El material contenido en esta página es para exclusivo uso privado, por lo que se prohibe su reproducción o retransmisión, así como su uso para fines comerciales.
Más versiones de Esos Ojos Negros, Duncan Dhu
Esos Ojos Negros
acordes
Esos Ojos Negros (ver 2)
acordes
Esos Ojos Negros
tablatura
Esos Ojos Negros
bajo
Descubre más canciones de Duncan Dhu