Esos Ojos Negros, Duncan Dhu (bajo)

Autor: Anónimo | 23438 visualizaciones

1ª Entrada
G:-----------
D:-----------
A:---5--3-2--
E:--3--------

Parte 1
G:--------------------------------|x2
D:--------------------------------|
A:-----------------2-----2-----2--|
E:--3--3--3--35-3-----2-----2-2---|

G:----------------------------------
D:----------------------------------
A:--5-----5-----5--3--5-------------
E:-----5-----5-5---------3--0--030--

G:---------------------------------------------------|
D:---------------------------------------------------|
A:--3--5---------5---3--5-----------------3--5-------|
E:--------3--1--5-5--------3--0-00-00-00-0------3—3--|

2ª Entrada
G:-----------
D:-----------
A:--53--2-0--
E:-----------

Parte 2
G:-----------------------------------------------------|
D:-----------------------------------------------------|
A:----------------2------------3---3--3--0-----0-------|
E:--3--3--03-5-3----2--03-5-3----3---3-------0----0--3-|

G:----------------------------------------------|
D:----------------------------------------------|
A:--5-----3------5-----3------5-----3-----------|
E:-----5-----3-5----5-----3-5----5-----3-5-3--3-|

2ª Entrada

Parte 1

2ª Entrada

Parte 2

Final
G:-----------------------------------------------------------|
D:-----------------------------------------------------------|
A:--------5-----3-------------------5----5---------33--------|
E:-3--3-5----5-----3-5-3--3--3--3-5----5----3-5-33-----3-0-3-|


Se aceptan correcciones ^_^

Fuente original: LaCuerda
Colaborador original: Fran [laveritatestaahifora@hotmail.com]
Calificar esta versión:
Aviso: Este fichero es trabajo propio de su transcriptor y representa su interpretación personal de la canción. El material contenido en esta página es para exclusivo uso privado, por lo que se prohibe su reproducción o retransmisión, así como su uso para fines comerciales.
Más versiones de Esos Ojos Negros, Duncan Dhu
Esos Ojos Negros
acordes
Esos Ojos Negros (ver 2)
acordes
Esos Ojos Negros
tablatura
Esos Ojos Negros
bajo
Descubre más canciones de Duncan Dhu