Yo Estare Bien, Don Tetto (tablatura)

Autor: jhonedine182 | 34444 visualizaciones



E|---------------------|
B|---------------------|
G|-777-999-111111-14-X-|
D|-XXX-XXX-X-X-X--X--X-|
A|-555-777-9-9-9--12-X-|
E|---------------------|

E|--------------------------------------------------------|
B|--------------------------------------------------------|
G|------------666------666-------------------666---10-8v--|
D|-----7h6p7-------9-7------9-7-------7h6p7------7--------|
A|-7-9----------------------------7-9---------------------|
E|--------------------------------------------------------|

E|-12-10-9-12-10-9-12-9-|-12-10-9----------------------------------8-9-11-|
B|----------------------|---------13-11-10-8-10-11---------8-10-11--------|
G|----------------------|--------------------------10-8-10----------------|
D|----------------------|-------------------------------------------------|
A|------------x2--------|-------------------------------------------------|
E|----------------------|-------------------------------------------------|

E|-18----17----16----15--------------------------------------------|
B|----16----16----16----16-18-16-15--11-12-13-13s15v----15-13h11v--|
G|-----------------------------------------------------------------|
D|-----------------------------------------------------------------|
A|-----------------------------------------------------------------|
E|-----------------------------------------------------------------|

         A5            B5
Juraste nunca mas decirme adiós
 C#5           D5
Para no dañarme el corazón
         A5            B5
Confiaba en ti ese fue el gran error
 C#5           D5
Y ahora lo estoy pagando.

         A5            B5
Pensaste que era lo mejor
 C#5           D5
Pensando en ti, no te importo el dolor
         A5             B5
Donde quedo el amor que un día los dos
 C#5           D5
Juramos sin pensarlo.


CORO:
A5
Y yo, yo estaré bien
B5
Talvez mañana
C#5        D5
Brille una esperanza
A5
Y yo, me enseñare
B5
A vivir sin ti
C#5            D5
He vuelto a ver lo que hay en mi

E|---------------------------|
B|---------------------------|
G|-77-766666666-77-799999999-|
D|-77-766666666-77-799999999-|
A|-55-544444444-55-577777777-|
E|---------------------------|

E|--------------------------------------------------------|
B|--------------------------------------------------------|
G|------------666------666-------------------666---10-8v--|
D|-----7h6p7-------9-7------9-7-------7h6p7------7--------|
A|-7-9----------------------------7-9---------------------|
E|--------------------------------------------------------|

         A5             B5
No es solo, cuestión de pedir perdón
 C#5           D5
Para que mentirle al corazón
         A5            B5
Cuando se ha vivido lo peor
 C#5           D5
Ya no quedan ganas

         A5            B5
Yo No quiero saber más de ti
 C#5           D5
Me da lo mismo si no estas aquí
         A5           B5
Estas con el y eso te hace feliz
 C#5           D5
O solo me engañabas.

CORO:
A
Y yo, yo estaré bien
Bm
Talvez mañana
C#m        D
Brille una esperanza
A
Y yo, me enseñare
Bm
A vivir sin ti
C#m            D
He vuelto a ver lo que hay en mi

Guitarra 1:                                  Guitarra 2:
E|-------------------------------------------|----------------------------|
B|-------------------------------------------|----------------------------|
G|-2-3-5-3--2-3-5-3--2-3-5-3--2-3-5-3-2-0-2~-|-77-76666666-77-79999999----|
D|----------------------------------------2~-|-77-76666666-77-79999999-7~-|
A|----------------------------------------0~-|-55-54444444-55-57777777-7~-|
E|-------------------------------------------|-------------------------5~-|

INTERLUDE: (TODO CON PALM MUTE DOS VECES)
E|-------------------------------------------------|
B|-------------------------------------------------|
G|----3----5----3---5---3----5----7----8----7---5--|
D|-33---33---33---3---3----55--55---55---55---5----|
A|-------------------------------------------------|
E|-------------------------------------------------|
   A5                      B5
E|-------------------------------------------------|
B|-------------------------------------------------|
G|----3----5----3---5---3----5----7----8----7---5--|
D|-33---33---33---3---3----55--55---55---55---5----|
A|-------------------------------------------------|
E|-------------------------------------------------|
   C#5                     D5
(Y YO STARE BIEN....)
E|------------------------------------------------------------------|
B|------------------------------------------------------------------|
G|-22222222-44444444-55555555-77777777-22222222-44444444-55555555-7-|
D|-22222222-44444444-55555555-77777777-22222222-44444444-55555555-7-|
A|-00000000-22222222-33333333-55555555-00000000-22222222-33333333-5-|
E|------------------------------------------------------------------|
   |--------------------------pm---------------------------------|

CORO:
A
Y yo, yo estaré bien
Bm
Talvez mañana
C#m        D
Brille una esperanza
A
Y yo, me enseñare
Bm
A vivir sin ti
C#m            D
He vuelto a ver lo que hay en mi

  A5            B5
Yo estaré bien sin ti
 C#5           D5
Aprenderé a vivir
A5            B5
Yo estaré bien Si el dolor me hace fuerte
 C#5           D5                 D5
Siempre que el sol salga cada mañana
(  S O L O  L A  V O  Z )
Día a día en mi ventana.”

NOTA FINAL: A5

ACORDES:
E|---X----X----X----X----7----7----9-----10----| s = slide
B|---X----X----X----X----7----7----9-----10----| v = vibrato
G|---6----7----2----4----6----7----9-----10----| h = hammer on
D|---6----7----2----4----7----9----11----12----| p = pull off
A|---4----5----0----2----7----9----11----12----| ~ = let ring
E|---X----X----X----X----5----7----9-----10----| pm= palm mute
    C#5   D5   A5   B5   A    Bm   C#m   D





Comentarios del colaborador: escuchen esta buena banda colombiana y apoyen el talento criollo

Calificar esta versión:
Aviso: Este fichero es trabajo propio de su transcriptor y representa su interpretación personal de la canción. El material contenido en esta página es para exclusivo uso privado, por lo que se prohibe su reproducción o retransmisión, así como su uso para fines comerciales.
Más versiones de Yo Estare Bien, Don Tetto
Yo Estare Bien
tablatura
Yo Estare Bien
bajo
Descubre más canciones de Don Tetto