Yo Estare Bien, Don Tetto (bajo)

Autor: jhonedine182 | 17690 visualizaciones



INTRO:
G|----------------------------------------|
D|----------------------------------------|
A|------------22222222-4-4-444-4-55555555-| X3
E|-5-5-5555-5-----------------------------|

G|-------------------------------------|
D|-------------------------------------|
A|------------22222222-4-4-4-4-4-4-5~~-|
E|-5-5-5555-5--------------------------|

VERSO: "Juraste nunca mas decirme adios"
G|-------------------------------------|
D|-------------------------------------|
A|-00000000-22222222-44444444-55555555-| X4
E|-------------------------------------|

CORO: " Y yo estare bien"
G|--------------------------------------------|
D|--------------------------------------------|
A|----------22222222-44444444-XX5-XX5-XX5-XX5-| X2
E|-55555555-----------------------------------|

RIF:
G|---------------------------|
D|---------------------------|
A|-33-322222222-33-355555555-|
E|---------------------------|

INTRO:
G|----------------------------------------|
D|----------------------------------------|
A|------------22222222-4-4-444-4-55555555-|
E|-5-5-5555-5-----------------------------|

G|-------------------------------------|
D|-------------------------------------|
A|------------22222222-4-4-4-4-4-4-5~~-|
E|-5-5-5555-5--------------------------|

VERSO: "No es esolo cuestion de pedir perdon"
G|-------------------------------------|
D|-------------------------------------|
A|-0-000000-2-222222-4-444444-5-555555-| X2
E|-------------------------------------|

"Yo no quiero saber mas de ti
G|-------------------------------------|
D|-------------------------------------|
A|-00000000-22222222-44444444-55555555-| X2
E|-------------------------------------|

CORO:

RIF:
G|-----------------------------|
D|-----------------------------|
A|-33-322222222-33-355555555-2-|
E|-----------------------------|

G|---------------------------------------X--X-X------|
D|-555-444-333---------------------------X--X-X------|
A|-------------0~~-----2-(pick slide)-4--X--X-X5-----|
E|---------------------------------------X--X-X------|

G|-------------------------------------|
D|-------------------------------------|
A|-00000000-22222222-44444444-55555555-|
E|-------------------------------------|

(Y YO STARE BIEN....)
G|------------------------------------------------------------------|
D|------------------------------------------------------------------|
A|----------22222222-33333333-55555555----------22222222-33333333-5-|
E|-55555555----------------------------55555555---------------------|


CORO:

FINAL:
G|--------------|
D|--------------|
A|--5~~---------|
E|--------1s15--|

s = slide
v = vibrato
h = hammer on
p = pull off
~ = let ring






Calificar esta versión:
Aviso: Este fichero es trabajo propio de su transcriptor y representa su interpretación personal de la canción. El material contenido en esta página es para exclusivo uso privado, por lo que se prohibe su reproducción o retransmisión, así como su uso para fines comerciales.
Más versiones de Yo Estare Bien, Don Tetto
Yo Estare Bien
tablatura
Yo Estare Bien
bajo
Descubre más canciones de Don Tetto