Sigamos Caminando, Don Tetto (tablatura)

Autor: jimdepe | 39523 visualizaciones



Hola >>>>hoy les traigo una Rola
 Hermosa a gusto personal la mejor bueno? ok 
la verdad estuve mirando tabs de esta canción 
y pues no me cuadraban de a mucho así que decidí
 sacarla por mí mismo mirando los videos de Don Tetto bueno ok 
(OJO LA CANCION ES MEDIO TONO ABAJO) Ósea las cuerdas van así:
 SI NECESITAN AYUDA AGREGENME EN FACEBOOK (JIM DEPE) 
D#5
A#4
F#4
C#4 
G#3
D#3
------------------5-----3---2-3-2-0---------------------
------------------5-----3-----------0-3-1-0-1-0---------
------------0------------------------------------2-0----
--------------------------------------------------------
--------2-----------------------------------------------
----3---------------------------------------------------


------------------5-----3---------5---8-7-8-7-----
------------------5-----3---0--3--5---8-------8---
------------0-------------------------------------
--------------------------------------------------
--------2-----------------------------------------
----3---------------------------------------------


            G
SIEMPRE ESTAREMOS BIEN
         G6
Y APRENDEREMOS A CAER
          G
DIFÍCIL PUEDE SER
           G6
CUANDO TE NIEGAS A CREER
            G
PODREMOS SUPERAR
          G6
LO QUE VIVIMOS Y VENDRÁ
            G
NADIE PUEDE CAMBIAR
         G6
LO QUE SENTIMOS ES VERDAD

(PRE CORO)
  Am         C
Y YO PUEDO JURAR
            G
QUE VOY A ESTAR
  G               G
CUANDO EL TIEMPO LLEGUE AL FINAL
    Am            C
Y AQUÍ VAS A ENCONTRAR
     G              D         D
TODO LO QUE ESTAS BUSCANDO, MIRAME

(CORO)
 G     D     Am             C
OHHH, WOOOO, WOOO, TAN SOLO PUEDO DARTE AMOR
  G     D    Am          C
OHHH, WOOOO, WOOO, OLVIDAREMOS EL DOLOR
G       D    Am                Am
OHHH, WOOOO, WOOO, SIGAMOS CAMINANDO
   Am
Y DEMOSTRANDO AL MUNDO
        C           D         (G)     
QUE TAN SOLO ESTABA HECHO PARA DOS



------------------5-----3--2-3-2-0--3---8---
------------------5-----3-----------3---8---
------------0-------------------------------
--------------------------------------------
--------2-----------------------------------
----3---------------------------------------





        G
NUNCA LEJOS ME IRÉ
             G6
SIEMPRE A TU LADO ESTARÉ
             G
AUNQUE TODO ANDE MAL
          G6
MI MANO PUEDE SUJETAR
            G
CRÉEME QUE TAMBIÉN
         G6
NINGÚN MIEDO A NO SABER
         G
LO QUE PUEDE PASAR
           G6
LO QUE LA VIDA NOS DARÁ


(PRE CORO)
  Am         C
Y YO PUEDO JURAR
            G
QUE VOY A ESTAR
  G               G
CUANDO EL TIEMPO LLEGUE AL FINAL
    Am            C
Y AQUÍ VAS A ENCONTRAR
     G              D
TODO LO QUE ESTAS BUSCANDO, MIRAME.....

(CORO)
 G     D     Am             C
OHHH, WOOOO, WOOO, TAN SOLO PUEDO DARTE AMOR
  G     D    Am          C
OHHH, WOOOO, WOOO, OLVIDAREMOS EL DOLOR
G       D    Am                Am
OHHH, WOOOO, WOOO, SIGAMOS CAMINANDO


   Am
Y DEMOSTRANDO AL MUNDO
        C           D         
QUE TAN SOLO ESTABA HECHO PARA? 
   E                    A          
BESARTE, Y ENTREGAR MI VIDA EN UN INSTANTE 
 E         D
AMARTE SIEMPRE


(CORO)
A       E     BM             D  
OHHH, WOOOO, WOOO, TAN SOLO PUEDO DARTE 
A       E     Bm         D
AMOR, WOOOO, WOOO, OLVIDAREMOS EL DOLOR
A       E     Bm             	D
DOLOR, WOOOO, WOOO, SIEMPRE ESTARE A TU LADO 
A       E     Bm           D
OHHH, WOOOO, WOOO, ASI PASEN LOS AÑOS
Bm                   D
SUJETANDO MI MANO SIGAMOS CAMINANDO 
Bm                          D                        
Y DEMOSTRANDO AL MUNDO QUE TAN SOLO ESTABA 
           A  
ECHO PARA DOS?? 


-------------------------------------------
----8-9-8----------------------------------
-----------10------8-6-8-------------------
--------------10---------10-11-10---8-6----
-------------------------------------------
-------------------------------------------

-------6----9---8-9-8---9/12---------------
---8--------9---------9--------------------
-------------------------------------------
-------------------------------------------
-------------------------------------------
-------------------------------------------


               MONI TE AMO





Calificar esta versión:
Aviso: Este fichero es trabajo propio de su transcriptor y representa su interpretación personal de la canción. El material contenido en esta página es para exclusivo uso privado, por lo que se prohibe su reproducción o retransmisión, así como su uso para fines comerciales.
Más versiones de Sigamos Caminando, Don Tetto
Sigamos Caminando
acordes
Sigamos Caminando (ver 2)
acordes
Sigamos Caminando (ver 3)
acordes
Sigamos Caminando (ver 4)
acordes
Sigamos Caminando
tablatura
Descubre más canciones de Don Tetto